PrimaNota.ru - самый крупный в мире бесплатный архив песенных текстов, аккордов, табулатур и нот


Rainbow - Man On The Silver Mountain - аккорды и текст, таба, бас-таба, видео

Регистрация Запомнить меня
Войти через:  Facebook Google Twitter Vk Yandex Mail.ru

Rainbow - Man On The Silver Mountain - аккорды и текст, таба, бас-таба, видео

Печатать
Просмотров: 2059
Авторы: Ronnie James Dio, Ritchie Blackmore

Man On The Silver Mountain
Rainbow
----------------------------------------------------------------------------
                  MAN ON THE SILVER MOUNTAIN - Rainbow
----------------------------------------------------------------------------
Tabbed by:   Olle-Sweden
Email:       olle_93_@hotmail.com

Tuning:      Standard (EBGDAE)

 Riff:
e|--------------------------------------------------|
B|--------------------------------------------------|
G|---------3-------------5-3------------3-----------|
D|---5-3-5-----3-5-5-3-5----------5-3-5---3-5-5-3-1-|
A|--------------------------------------------------|
E|-3----------------------------3-------------------|

 Verse 1:

      F5           C5
I'm a wheel, I'm a wheel

      G5
I can roll, I can feel

    Eb5       C5       F5
And you can't stop me turning

               G5           F5
'Cause I'm the sun, I'm the sun

      C5
I can move, I can run

           Eb5   C5       G5
But you'll never stop me burning

 Chorus:

D5                Bb5
   Come down with fire

D5             A5
Lift my spirit higher

Bb5       C5         Bb5     G5
Someone's screaming my name

Eb5      F5      Riff x2
Come and make me holy again

I'm the man on the silver mountain

I'm the man on the silver mountain

 Verse 2:

I'm the day, I'm the day
I can show you the way
And look I'm right beside you
I'm the night, I'm the night
I'm the dark and the light
With eyes that see inside you

 Chorus

 Before solo:
e|------------------|
B|------------------|
G|------------------|
D|------------------|
A|------------------|
E|-8---6-5-6-5--3-1-|

 Solo

G5  Eb5  C5  F5

G5  Eb5  C5  D5

G5  Eb5  C5  F5

G5  Eb5  C5  G5

 Chorus

 Repeat Riff to end
Добавлено: 17.06.2012
Другие материалы по этой песне:

Страница создана 23.02.2012
http://primanota.ru/rainbow/man-on-the-silver-mountain-chords.htm
Привет, Гость.
Предлагаем пройти революционный курс по гитаре.
Подарок от PrimaNota.Ru, забирай!