PrimaNota.ru - самый крупный в мире бесплатный архив песенных текстов, аккордов, табулатур и нот


Rainbow Kitten Surprise - Devil Like Me - таба, видео

Регистрация Запомнить меня
Войти через:  Facebook Google Twitter Vk Yandex Mail.ru

Rainbow Kitten Surprise - Devil Like Me - таба, видео

Печатать
Просмотров: 533
-------------------------------------------------------------------------------
                             Devil Like Me - Rainbow Kitten Surprise
-------------------------------------------------------------------------------
Tabbed by: Aaron Shipley
E-mail: aaron_shipley@att.net

Tuning: Standard

Fairly easy to figure out the speed by listening to the song. 

https://soundcloud.com/rainbow-kitten-surprise/rainbow-kitten-surprise

Please comment if you see any mistakes.

e|---------------------------------------------------------------------------|
B|---------------------------------------------------------------------------|
G|---------------------------------------------------------------------------|
D|-----------4-------4-------4---------------4-------4-------2---0-----------|
A|---2---2-------2-------2-------0-------------------------------------------|
E|-----------------------------------2---2-------2-------2-------------------|

e|---------------------------------------------------------------------------|
B|---------------------------------------------------------------------------|
G|---------------------------------------------------------------------------|
D|---------------------------------------------------------------------------|
A|-----------7-------7---7-/-9-\-7--------------7-------7---7-/-9-\-7---5----|
E|---5---5-------5----------------------5---5-------5------------------------|

Repeat.

BEYOND!!!



| /   slide up
| \   slide down
Добавлено: 30.08.2014
Другие материалы по этой песне:
  • Аккорды и текст

Страница создана 30.08.2014
http://primanota.ru/rainbow-kitten-surprise/devil-like-me-chords.htm
Привет, Гость.
Предлагаем пройти революционный курс по гитаре.
Подарок от PrimaNota.Ru, забирай!