PrimaNota.ru - самый крупный в мире бесплатный архив песенных текстов, аккордов, табулатур и нот


Radiohead - I might be wrong live - таба, видео

Регистрация Запомнить меня
Войти через:  Facebook Google Twitter Vk Yandex Mail.ru

Radiohead - I might be wrong live - таба, видео

Печатать
Просмотров: 148




RADIOHEAD
I MIGHT BE WRONG (C. Greenwood, J. Greenwood, E. O'Brien, P. Selway, T. Yorke)


Transcribed by Stephen Constantine; influx@dingoblue.net.au


Here's the lead break to one of my favourite new songs 'I Might Be Wrong'. I'm not sure if its played by Jonny or Ed but who cares, really

I figured this out from the performance of September 20, 2000 in France. 
The recorded version will no doubt be different, and the tab'll be redundant 
then. haha. I have not worked out the other parts to the song. If you like 
what you see here, e-mail me and I may work on it/send it to you. As requested 


It seems pretty accurate to my ears. The last bit may be off, though


    Dm                   C                Bbmaj7            Am
-----------1---------1---------0------------------------------------
--------3---------3-------------------------3---------3---------1---
-----2----------------------0------------2--------------------------
--0------------0----------------------3------------3---------2------
-------------------------3---------1------------1---------0---------
--------------------------------------------------------------------

     G
--------------------------------------------------------------------
--------------------------------------------------------------------
--------0--3p0----------0--3p0--------------------------------------
-----0---------------0----------------------------------------------
--------------------------------------------------------------------
--3---------------3-------------------------------------------------



If you only wanna strum along, here's a chord chart for you:

  Dm   C   Bbmaj7   Am    G
---1---0-----x-------0----x---
---3---1-----3-------1----x---
---2---0-----2-------2----x---
---0---2-----3-------2----0---
---0---3-----1-------0----2---
---0---0-----x-------0----3---



Hope this helps


Transcribed by Stephen Constantine; influx@dingoblue.net.au


Добавлено: 22.09.2013
Другие материалы по этой песне:
  • Аккорды и текст

Страница создана 22.09.2013
http://primanota.ru/radiohead/i-might-be-wrong-live-chords.htm
Привет, Гость.
Предлагаем пройти революционный курс по гитаре.
Подарок от PrimaNota.Ru, забирай!