PrimaNota.ru - самый крупный в мире бесплатный архив песенных текстов, аккордов, табулатур и нот


Radiohead - Go To Sleep - аккорды и текст, таба, бас-таба, видео

Регистрация Запомнить меня
Войти через:  Facebook Google Twitter Vk Yandex Mail.ru

Radiohead - Go To Sleep - аккорды и текст, таба, бас-таба, видео

Печатать
Просмотров: 544
Уроки эстрадного вокала в Санкт-Петербурге
Go To Sleep
Radiohead
Title: Go To Sleep
Artist: Radiohead
Album: Hail To Thief
Tabbed by: Jason Schupper - Heckler11230@yahoo.com

This might need SOME work but for now it is perfect, I stress
That you must listen to the song to get the rhythm  because it is
In 5/4 timing.

Acoustic (no mids high bass and treble)

-|---3-3-3--|-6\5-/8\7---3-3-3-1-|-
-|---3-3-3--|-6\3-/8\8---3-3-3-3-|-
-|---0-0-0-o|-0-0--0-0---0-0-0-0-|o
-|---0-0-0-o|-0-0--0-0---0-0-0-0-|o
-|---x-x-x--|-x-x--x-x---x-------|-
-|-1/3-3-3--|-6\5-/8\7-1/3-------|-
   
1 or 2X substituted w/this:

-|---3-3-3--|-6\3-/8\3--3-3-3-1--|-
-|---3-3-3--|-6\3-/8\3--3-3-3-3--|-
-|---0-0-0-o|-0-0--0-0--0-0-0-0--|o
-|---0-0-0-o|-x-x--x-x-----------|o
-|---x-x-x--|-6\1--8-3-----------|-
-|-1/3-3-3--|--------------------|-

Then: "I'm gonnagotosleeep!"
-|-----------------------------|-
-|-6-6-6-6-6-6-6/8-8-8-8-8-8-8-|-
-|-0-0-0-0-0-0-0/0-0-0-0-0-0-0-|-
-|-0-0-0-0-0-0-0/0-0-0-0-0-0-0-|-
-|-x-x-x-x-x-x-x/x-x-x-x-x-x-x-|-
-|-6-6-6-6-6-6-6/8-8-8-8-8-8-8-|-
   
And the "we don't want the loonies taking oveeeer..." part.

                              ***************   
-|---------------------------|---------------|-
-|---------------------------|---------------|-
-|---------------------------|-10-x-9--9--9--|-
-|-3/5-5-5-5-x-7-x-5-5-5-5-x-|-10-x-10-10-10-|-
-|-3/5-5-5-5-x-5-x-8-8-8-8-x-|-10-x-10-10-10-|-
-|-1/3-3-3-5-x-6-x-6-6-6-6-x-|-8--x-8--8--8--|-
                               
*some parts of the song hold this part off. 

>From there in the unmastered version is kind of a solo which is prolly not supposed to be tabbed.


     
Добавлено: 01.09.2013
Другие материалы по этой песне:

Страница создана 06.03.2012
http://primanota.ru/radiohead/go-to-sleep-chords.htm
Привет, Гость.
Предлагаем пройти революционный курс по гитаре.
Подарок от PrimaNota.Ru, забирай!