PrimaNota.ru - самый крупный в мире бесплатный архив песенных текстов, аккордов, табулатур и нот


Queens Of The Stone Age - The flow - таба, видео

Регистрация Запомнить меня
Войти через:  Facebook Google Twitter Vk Yandex Mail.ru

Queens Of The Stone Age - The flow - таба, видео

Печатать
Просмотров: 80



Date: Wed, 03 Sep 2003 15:05:59 -0500
From: [iso-8859-1] Daniela Carreсo Barreto 
Subject: q/queens_of_the_stone_age/the_flow.tab

Song: Go With The Flow
Artist: Queens Of Stone Age
Album: Songs For The Deaf
Tabbed by:
I've put here the tabs for Guitars 1 and 2. listen to the song a couple
of times before start playing, because both guitars have very different
timing.
Let's start with tabs for Guitar 1. All the notes are played with
harmonics.
INTRO
E|--12--12/15--12--127----------------------12-14-15--14-12-12--19-19-
b|12-------------------12--12-13-15-13-12--12-----------------------------
VERSE 1
E|----------------------15--12--------------
b|12-13-15-13-12-------12-------13-10-12
CHORUS
g|12--9--13--
VERSE 2
E|------------------------------15--12---------------------
b|--------------------------------12---5/12-5/12-10-8-4-5
g|10/16-10/16-14--12--11--9-----------------------------
VERSE 2 (Continued)
E|----------------------------------15-12-19//////
b|------------------------------------------------
g|11-/-9-9-9-9-9-9-9-9-9-9---------------------
OUTRO
E|15--12---15--12---15-17-16---15-17-16---15-17-16---15-17-19/////
b|--12--------12---------------------------------------------------------
Now, here are the tabs for Guitar 2.
INTRO
E|------------------------------------
b|------------------------------------
g|------------------------------------
d|2-2-2-2-2-2-2-2-2-2-2-2-2-2-2-2
a|2-2-2-2-2-2-2-2-2-2-2-2-2-2-2-2
e|0-0-0-0-0-0-0-0-0-0-0-0-0-0-0-0
VERSE
E|-----------------------------------------------------
b|-----------------------------------------------------
g|5-5-5-5-2-2-2-2-----------------------------------
d|5-5-5-5-2-2-2-2-2-2-2-2-2-2-2-2-2-2-2-2-2-2-2
a|3-3-3-3-0-0-0-0-2-2-2-2-2-2-2-2-2-2-2-2-2-2-2
e|-------------------0-0-0-0-0-0-0-0-0-0-0-0-0-0-0
CHORUS
E|-----------------------------------------------------
b|-----------------------------------------------------
g|5-5-5-5-7-7-7-7-----------------------------------
d|5-5-5-5-7-7-7-7-2-2-2-2-2-2-2-2-2-2-2-2-2-2-2
a|3-3-3-3-5-5-5-5-2-2-2-2-2-2-2-2-2-2-2-2-2-2-2
e|-------------------0-0-0-0-0-0-0-0-0-0-0-0-0-0-0
OUTRO
E|----------------------------------------------------
b|----------------------------------------------------
g|5-5-5-5-7-7-7-7-9-9-9-9-9-9-9-9-9-9-9-9-9-9-9
d|5-5-5-5-7-7-7-7-9-9-9-9-9-9-9-9-9-9-9-9-9-9-9
a|3-3-3-3-5-5-5-5-7-7-7-7-7-7-7-7-7-7-7-7-7-7-7
e|----------------------------------------------------
SONG ORDER
GUITAR 1                GUITAR 2
(No playing)               Intro
Intro                          Verse x2
Verse 1                     Verse x6
Chorus x4                 Chorus x4
Verse 2                     Verse x8
Chorus x4                 Chorus x4
Outro                        Outro x6

________________________________________________________________________________


Добавлено: 28.09.2013
Другие материалы по этой песне:
  • Аккорды и текст

Страница создана 28.09.2013
http://primanota.ru/queens-of-the-stone-age/the-flow-chords.htm
Привет, Гость.
Предлагаем пройти революционный курс по гитаре.
Подарок от PrimaNota.Ru, забирай!