PrimaNota.ru - самый крупный в мире бесплатный архив песенных текстов, аккордов, табулатур и нот


Queens Of The Stone Age - Everybody knows your insane - таба, видео

Регистрация Запомнить меня
Войти через:  Facebook Google Twitter Vk Yandex Mail.ru

Queens Of The Stone Age - Everybody knows your insane - таба, видео

Печатать
Просмотров: 126


 Standard tuning,
 ~ = vibato
 / = slide
 h = hammer on
 ^ = bend

 E|---------------------------------------------|
 B|/6---3~--3-2--------------/12-10~-10h12-12/15|
 G|------------2-2/5-5/7-7/10-------------------|
 D|---------------------------------------------|
 A|---------------------------------------------|
 E|---------------------------------------------|


 |----------------------------------------18^-20|
 |----11-11/14-14/16-16/18-18-18-14~-14/16------|
 |15^-------------------------------------------|
 |----------------------------------------------|
 |----------------------------------------------|
 |----------------------------------------------|


  |-18^-20-18-----------------|
  |------------14~------------|
  |---------------------------|
  |---------------------------|
  |---------------------------|
  |---------------------------|

 

Добавлено: 31.01.2014
Другие материалы по этой песне:
  • Аккорды и текст

Страница создана 31.01.2014
http://primanota.ru/queens-of-the-stone-age/everybody-knows-your-insane-chords.htm
Привет, Гость.
Предлагаем пройти революционный курс по гитаре.
Подарок от PrimaNota.Ru, забирай!