PrimaNota.ru - самый крупный в мире бесплатный архив песенных текстов, аккордов, табулатур и нот


Queens Of The Stone Age - Everybodys Gonna Be Happy - аккорды и текст, таба, бас-таба, видео

Регистрация Запомнить меня
Войти через:  Facebook Google Twitter Vk Yandex Mail.ru

Queens Of The Stone Age - Everybodys Gonna Be Happy - аккорды и текст, таба, бас-таба, видео

Печатать
Просмотров: 233
Everybodys Gonna Be Happy
Queens Of The Stone Age



Date: Fri, 30 May 2003 15:31:47 +0000
From: Georg Klint 
Subject: q/queens_of_the_stone_age/everybodys_gonna_be_happy.crd

Title: Everybody's gonna be happy
Artist: Queens of the stone age
Album: Songs for the deaf
Transcribed by: Georg Klint
Date: 030530
 
Tuning: E A D G B E
 
verse (and intro) chord shapes
|-5-----------------------6-----------------------
|-4-----------------------5-----------------------
|-4-----------------------6-----------------------
|-4-----------------------4-----------------------
|-------------------------------------------------
|-------------------------------------------------
 
verse variation
|-11----------------------12----------------------
|-10----------------------11----------------------
|-11----------------------11----------------------
|-9-----------------------11----------------------
|-------------------------------------------------
|-------------------------------------------------
 
chorus chords: A | A | E | G# | C# | C#B | F#
 
Listen to the song for strumming patterns and changes. It can be played
on electric or acoustic guitar, sounds great either way...  have fun with
it


Добавлено: 03.01.2014
Другие материалы по этой песне:
  • Аккорды и текст

Страница создана 01.05.2012
http://primanota.ru/queens-of-the-stone-age/everybodys-gonna-be-happy-chords.htm
Привет, Гость.
Предлагаем пройти революционный курс по гитаре.
Подарок от PrimaNota.Ru, забирай!