PrimaNota.ru - самый крупный в мире бесплатный архив песенных текстов, аккордов, табулатур и нот


Queens Of The Stone Age - Hispanic Impressions - таба, видео

Регистрация Запомнить меня
Войти через:  Facebook Google Twitter Vk Yandex Mail.ru

Queens Of The Stone Age - Hispanic Impressions - таба, видео

Печатать
Просмотров: 155
Авторы музыки: Josh Homme, Alfredo Hernandez
Авторы текста: Josh Homme, Alfredo Hernandez
-------------------------------------------------------------------------------|
  HISPANIC IMPRESSIONS – Queens of the Stone Age
-------------------------------------------------------------------------------|
Tabbed by:Cliffbanger
Email:

Tuning:Standard

Hey Guys,this is my first tab! So, I thought this weird,crazy, but really great
could be my first attempt. Enjoy and have fun!

e|---------------------------------------------------------------------------|
B|---------------------------------------------------------------------------|
G|---------------------------------------------------------------------------|
D|---------------------------------------------------------------------------|
A|-------------6-6-6-6-6-6-------------6-6-6-6-6-6---------------------------|
E|-5-5-5-5-5-5-------------5-5-5-5-5-5---------------------------------------|

e|---------------------------------------------------------------------------|
B|---------------------------------------------------------------------------|
G|---------------------------------------------------------------------------|
D|------5--3-3-------5--3-3--------------------5--3-3-------5--3-3-----------|
A|---------------------------------6-6-6-------------------------------------|
E|-1-1----------1-1----------5-5-5--------1-1----------1-1-------------------|

e|---------------------------------------------------------------------------|
B|---------------------------------------------------------------------------|
G|---------------------------------------------------------------------------|
D|------5--3-3---------------------------------------------------------------|
A|--------------------------6-6-6-6-6-6[------------6-6-6-6-6-6]-------------|
E|-1-1----------5-5-5-5-5-5------------[5-5-5-5-5-5------------]-------------|
                                       [    fourth time        ]

after 4 times:

e|---------------------------------------------------------------------------|
B|---------------------------------------------------------------------------|
G|---------------------------------------------------------------------------|
D|-6-----6-----6--6--6--9----------------------------------------------------|
A|----7-----7----------------------------------------------------------------|
E|---------------------------------------------------------------------------|


Over that riff,play the next lick:

e|---------------------------------------------------------------------------|
B|----13----------13----------13----13----13----15----13-------13------------|
G|----------14----------14-------------------------------14-------14---------|
D|-16----16----16----16----16----16----16----16----16-------16-------16------|
A|---------------------------------------------------------------------------|
E|---------------------------------------------------------------------------|

e|---------------------------------------------------------------------------|
B|-13-------13-------16-------16-------16-------16/19------------------------|
G|----14----------14----17-------17----------17------------------------------|
D|-------16----16----------19-------19----19---------------------------------|
A|---------------------------------------------------------------------------|
E|---------------------------------------------------------------------------|


In the secound round the lick comes again,but shorter:

e|---------------------------------------------------------------------------|
B|----13----------13----------13-------13-------13---------------------------|
G|----------14----------14-------14-------14-------14----14------------------|
D|-16----16----16----16----16-------16-------16-------16---------------------|
A|---------------------------------------------------------------------------|
E|---------------------------------------------------------------------------|


Then:

e|---------------------------------------------------------------------------|
B|---------------------------------------------------------------------------|
G|---------------------------------------------------------------------------|
D|----2h3-2---2h3-2h3-2---0h1-0----0h1-0h1-0---------------------------------|
A|---------------------------------------------------------------------------|
E|-1--------1-----------1--------1-------------------------------------------|

Over that riff is also a lick:

e|---------------------------------------------------------------------------|
B|-13~-----------------------------------------------------------------------|
G|----------14-------------------14~-----------------------------------------|
D|-------15----15-13~---13-15-13-------13-15-13-13~--------------------------|
A|---------------------------------------------------------------------------|
E|---------------------------------------------------------------------------|

e|---------------------------------------------------------------------------|
B|-13~------------------------------------------13--b--15--------------------|
G|----------14-------------------14~-----------------------------------------|
D|-------15----15-13~---13-15-13-------13-15-13------------------------------|
A|---------------------------------------------------------------------------|
E|---------------------------------------------------------------------------|

I know, Josh and Nick used to play it in C-Tuning, but since no one ever tabbed it out
just because it's a funny song, this is an easy way to play it in standard tuning and it
be enough to play it right!


Greetings from Germany,

CLIFFBANGER


| /  slide up
| \  slide down
| h  hammer-on
| p  pull-off
| ~  vibrato
| +  harmonic
| x  Mute note
===============================================================================
Добавлено: 11.05.2012
Другие материалы по этой песне:
  • Аккорды и текст

Страница создана 11.05.2012
http://primanota.ru/queens-of-the-stone-age/hispanic-impressions-chords.htm
Привет, Гость.
Предлагаем пройти революционный курс по гитаре.
Подарок от PrimaNota.Ru, забирай!