PrimaNota.ru - самый крупный в мире бесплатный архив песенных текстов, аккордов, табулатур и нот


Pyogenesis - Undead - текст песни, таба, видео

Регистрация Запомнить меня
Войти через:  Facebook Google Twitter Vk Yandex Mail.ru

Pyogenesis - Undead - текст песни, таба, видео

Печатать
Просмотров: 180
Уроки эстрадного вокала в Санкт-Петербурге
   -------------------------------------------------------------------------------
                             Undead - Pyogenesis
-------------------------------------------------------------------------------
Tabbed by:
thimebob81

Tuning:Standard

Intro:

e|------------0------------------------0----------------------------------------|
B|------3-------3-----3-------------3----3-----3--------------------------------|
G|----2---2-------2-----2---------2-------2-----2-------------------------------|
D|--0---------------------------3-----------------------------------------------|
A|------------------------------------------------------------------------------|
E|------------------------------------------------------------------------------|

e|----------0-----------------------------------3--1---------------------------|
B|-----3------3----3--------------------3--------------3---3-------------------|
G|--------0-----0----0--------------------0--------------0---------------------|
D|--2--------------------------------------------------------------------------|
A|-3------------------------------2--------------------------------------------|
E|------------------------------3----------------------------------------------|


Riff

e|---------------------------------------------------------------------------|
B|---------------------------------------------------------------------------|
G|--7---------10-------------------------------------------------------------|
D|--7---------10-----------10----------5-------------------------------------|
A|--5----------8-----------10----------5-------------------------------------|
E|--------------------------8----------3-------------------------------------|
************************************

| /   slide up
| \   slide down
| h   hammer-on
| p   pull-off
| ~   vibrato
| +   harmonic
| x   Mute note
| b   Bend
| pb  Pre-bend
| br  Bend release
| pbr Pre-bend release
| brb Bend release bend

************************************
Добавлено: 03.07.2013
Другие материалы по этой песне:

Страница создана 08.04.2012
http://primanota.ru/pyogenesis/undead-chords.htm
Привет, Гость.
Предлагаем пройти революционный курс по гитаре.
Подарок от PrimaNota.Ru, забирай!