PrimaNota.ru - самый крупный в мире бесплатный архив песенных текстов, аккордов, табулатур и нот


Puddle Of Mudd - Pyscho - таба, видео

Регистрация Запомнить меня
Войти через:  Facebook Google Twitter Vk Yandex Mail.ru

Puddle Of Mudd - Pyscho - таба, видео

Печатать
Просмотров: 80


heres the intro cause thats all i got

it uses standard tuning


   e|--------------------------------------
   B|-----11------11------11-------12------
   G|-----11------11------11-------12------
   D|--------------------------------------
   A|---9-------9-------9-------10---------
   E|--------------------------------------



   e|--------------------------------------
   B|-----7-------7-------7-------9--------
   G|-----7-------7-------7-------9--------
   D|--------------------------------------
   A|---5-------5-------5-------7----------
   E|--------------------------------------

   ps: if you use your pinky and
   your ring finger and you index
   its easier to play        

Добавлено: 30.12.2013
Другие материалы по этой песне:
  • Аккорды и текст

Страница создана 30.12.2013
http://primanota.ru/puddle-of-mudd/pyscho-chords.htm
Привет, Гость.
Предлагаем пройти революционный курс по гитаре.
Подарок от PrimaNota.Ru, забирай!