PrimaNota.ru - самый крупный в мире бесплатный архив песенных текстов, аккордов, табулатур и нот


Puddle Of Mudd - Blood On The Table - текст песни, таба, видео

Регистрация Запомнить меня
Войти через:  Facebook Google Twitter Vk Yandex Mail.ru

Puddle Of Mudd - Blood On The Table - текст песни, таба, видео

Печатать
Просмотров: 153
Alright, this is my first tab and so I thought I'd make a PoM song. Real easy and the 
tuning is a half step down (Eb).


Main Riff
|--------------------|
|--------------------|
|9----5--------------|
|9(x8)5(x8)7----5----|
|7----3----7(x8)5(x8)|
|----------5----3----|


Lead Riff
|---------------------------------------------------------|
|---------------------------------------------------------|
|---------------------------------------------------------|
|-----------7------------10------------7------------------|
|10-10-7-10---10-10-7-10----10-10-7-10---10-10-7-10(b)-7--|
|---------------------------------------------------------|


Verse 1 (Main Riff)


Pre Chorus
|------------|
|------------|
|------------|
|7-----9-----|
|7(x16)9(x16)|
|5-----7-----|


Chorus
|--------------------|
|--------------------|
|----------5---------| (x2)
|2----5----5(x4)7----|
|2(x4)5(x4)3----7(x4)|
|0----3---------5----|


Main Riff

Lead Riff

Verse 2 (Main Riff)

Pre Chorus

Chorus

Lead Riff 2
|-----------|
|-----------|
|-----------|  (x8)
|-----------|
|7-7-5-0----|
|--------3-0|


Bridge
|-------------------|       |-------------------|
|-------------------|       |-------------------|
|-------------7-----|  (x2) |-------7-----9-----|
|9------7-----7(x8)-|       |9------5(x8)-9(x8)-|
|9(x16)-7(x8)-5-----|       |9(x16)-5-----7-----|
|7------5-----------|       |7------------------|


Chorus

Lead Riff 2


AND THAT'S THE WHOLE SONG. Comment, corrections, etc. POM FOR LIFE!
Добавлено: 08.11.2013
Другие материалы по этой песне:
  • Аккорды и текст

Страница создана 19.10.2013
http://primanota.ru/puddle-of-mudd/blood-on-the-table-chords.htm
Привет, Гость.
Предлагаем пройти революционный курс по гитаре.
Подарок от PrimaNota.Ru, забирай!