PrimaNota.ru - самый крупный в мире бесплатный архив песенных текстов, аккордов, табулатур и нот


Public Image Ltd - Annalisa - таба, видео

Регистрация Запомнить меня
Войти через:  Facebook Google Twitter Vk Yandex Mail.ru

Public Image Ltd - Annalisa - таба, видео

Печатать
Просмотров: 94
Уроки эстрадного вокала в Санкт-Петербурге
Авторы музыки: John Lydon, Keith Levene, Jim Walker, Jah Wobble
Авторы текста: John Lydon
PUBLIC IMAGE LIMITED [aka PiL]
Annalisa
'First Issue' LP

Tabbed by Luke Borley

BASS intro then repeats throughout

-----------|--------------|-----------|--------------
-----------|--------------|-----------|--------------  
-----------|--------7-6-5-|-----------|--5-6-7------- 
--0--9-9-9-|--7-6-5-------|--0--9-9-9-|--------5-6-7-


                                      |--------------
GUITAR 1 - distorted                  |--6-7-9-------
           (enters on bar 8)          |--------6-7-8-
                                      |--------------
                                      |--------------
                                      |--------------

-----------|--------------|-----------|---------------
--9--6-6-6-|---9--9--9--9-|--9--6-6-6-|---9--9--9--9--
--9--6-6-6-|---9--9--9--9-|--9--6-6-6-|---9--9--9--9--
--9--6-6-6-|---9--9--9--9-|--9--6-6-6-|---9--9--9--9--
-----------|--------------|-----------|---------------
-----------|--------------|-----------|---------------

GUITAR 2 - mild overdrive
           (enters on bar 9 alongside guitar 1)

-----------|--------------|-----------|---------------
-----------|---0-0-0-0-0-0|--------6--|---0-0-0-0-0-0-
-----6-6-6-|--------------|-------6-6-|---------------
--2--6-6-6-|--------------|-----------|---------------
--2--4-4-4-|--------------|-----------|---------------
--0--------|--------------|-----------|---------------

Both guitars play variations throughout.
Добавлено: 22.06.2016
Другие материалы по этой песне:
  • Аккорды и текст

Страница создана 22.06.2016
http://primanota.ru/public-image-ltd/annalisa-chords.htm
Привет, Гость.
Предлагаем пройти революционный курс по гитаре.
Подарок от PrimaNota.Ru, забирай!