PrimaNota.ru - самый крупный в мире бесплатный архив песенных текстов, аккордов, табулатур и нот


Prince - Got A Broken Heart Again - бас-таба, видео

Регистрация Запомнить меня
Войти через:  Facebook Google Twitter Vk Yandex Mail.ru

Prince - Got A Broken Heart Again - бас-таба, видео

Печатать
Просмотров: 25
                             Got A Broken Heart Again
                                      Prince

Bass                                                              Prince 

As played by Prince

In 12/8

Intro

|-------------------------|
|-------------------------|
|---------------0-1-2-3-4-|
|-------------------------|
  H.          E E E E E E

|-------------------------|-------------------------|
|-------------------------|-------------------------|
|-5-----4-----------------|-------------------------|
|-------------7-----5-----|-3---------3-------3-2-0-|
  Q.    Q.    Q.    Q.      Q.    Q   E Q.    E E E

|-------------------------|-------------------------|
|-------------------------|-------------------------|
|-5-----4-----------------|-------------------------|
|-------------7-----5-----|-3---------3-------3-2-0-|
  Q.    Q.    Q.    Q.      Q.    Q   E Q.    E E E

|-------------------------|-------------------------|
|-------------------------|-------------------------|
|-------------5-----------|-------------------------|
|-5-----------------------|-3---------4-------------|
  H.          H.            Q.    Q   E H.

|-------------------------|-------------------------|
|-------------------------|-------------------------|
|-------------------------|-------------------------|
|-5-----------5-----------|-5---------5-------------|
  H.          H.            Q.    Q   E H.

Verse 1

|-------------------------|-------------------------|
|-------------------------|-------------------------|
|-5-----4-----------------|-------------------------|
|-------------7-----5-----|-3---------3-------3-2-0-|
  Q.    Q.    Q.    Q.      Q.    Q   E Q.    E E E

|-------------------------|-------------------------|
|-------------------------|-------------------------|
|-5-----4-----------------|-------------------------|
|-------------7-----5-----|-3---------3-------3-2-0-|
  Q.    Q.    Q.    Q.      Q.    Q   E Q.    E E E

|-------------------------|-------------------------|
|-------------------------|-------------------------|
|-------------5-----------|-------------------------|
|-5-----------------------|-3---------4-------------|
  H.          H.            Q.    Q   E H.

|-------------------------|-------------------------|
|-------------------------|-------------------------|
|-------------------------|-------------------------|
|-5-----------5-----------|-5---------5---5---------|
  H.          H.            Q.    Q   E E E H

Verse 2

|-------------------------|-------------------------|
|-------------------------|-------------------------|
|-5-----4-----------------|-------------------------|
|-------------7-----5-----|-3---------3-------3-2-0-|
  Q.    Q.    Q.    Q.      Q.    Q   E Q.    E E E

|-------------------------|-------------------------|
|-------------------------|-------------------------|
|-5-----4-----------------|-------------------------|
|-------------7-----5-----|-3---------3-------3-2-0-|
  Q.    Q.    Q.    Q.      Q.    Q   E Q.    E E E

|-------------------------|-------------------------|
|-------------------------|-------------------------|
|-------------5-----------|-------------------------|
|-5-----------------------|-3---------4-------------|
  H.          H.            Q.    Q   E H.

|-------------------------|-------------------------|
|-------------------------|-------------------------|
|-------------------------|---------------0-1-2-3-4-|
|-5-----------5-----------|-5---------5-------------|
  H.          H.            Q.    Q   E E E E E E E

Solo

|-------------------------|-------------------------|
|-------------------------|-------------------------|
|-5-----4-----------------|-------------------------|
|-------------7-----5-----|-3---------3-------3-2-0-|
  Q.    Q.    Q.    Q.      Q.    Q   E Q.    E E E

|-------------------------|-------------------------|
|-------------------------|-------------------------|
|-5-----4-----------------|-------------------------|
|-------------7-----5-----|-3---------3-------3-2-0-|
  Q.    Q.    Q.    Q.      Q.    Q   E Q.    E E E

|-------------------------|-------------------------|
|-------------------------|-------------------------|
|-------------5-----------|-------------------------|
|-5-----------------------|-3---------4-------------|
  H.          H.            Q.    Q   E H.

|-------------------------|-------------------------|
|-------------------------|-------------------------|
|-------------------------|-------------------------|
|-5-----------5-----------|-5---------5-------------|
  H.          H.            Q.    Q   E H.

Verse 3

|-------------------------|-------------------------|
|-------------------------|-------------------------|
|-5-----4-----------------|-------------------------|
|-------------7-----5-----|-3---------3-------3-2-0-|
  Q.    Q.    Q.    Q.      Q.    Q   E Q.    E E E

|-------------------------|-------------------------|
|-------------------------|-------------------------|
|-5-----4-----------------|-------------------------|
|-------------------------|-3---------3-----------0-|
  Q.    Q.    H.     .      Q.    Q   E Q.    E E E

|-------------------------|-------------------------|
|-------------------------|-------------------------|
|-------------5-----------|-------------------------|
|-5-----------------------|-3---------4-------------|
  H.          H.            Q.    Q   E H.

|-------------------------|-------------------------|
|-------------------------|-------------------------|
|-------------------------|---------------0-1-2-3-4-|
|-5-----------5-----------|-5-5-5-5-5-5-5-----------|
  H.          H.            E E E E E E E E E E E E

Verse 4

|-------------------------|-------------------------|
|-------------------------|-------------------------|
|-5-----4-----------------|-------------------------|
|-------------7-----5-----|-3---------3-------3-2-0-|
  Q.    Q.    Q.    Q.      Q.    Q   E Q.    E E E

|-------------------------|-------------------------|
|-------------------------|-------------------------|
|-5-----4-----------------|-------------------------|
|-------------7-----5-----|-3---------3-------3-2-0-|
  Q.    Q.    Q.    Q.      Q.    Q   E Q.    E E E

|-------------------------|-------------------------|
|-------------------------|-------------------------|
|-------------5-----------|-------------------------|
|-5-----------------------|-3---------4-------------|
  H.          H.            Q.    Q   E H.

|-------------------------|-10tr--------------13-13-|
|-------------------------|-------------------------|
|-------------------------|-------------------------|
|-5-----------------------|-------------------------|
  W.                        H.                E E E 

|-15----------17----------||
|-------------------------||
|-------------------------||
|-------------------------||
  H.          H.


Key to rhythm notations:

W - Whole Note/Semi-Brieve
H - Half Note/Minim
Q - Quarter Note/Crotchet       Q. - Dotted Quarter Note
E - Eight Note/Quaver           E. - Dotted Eight Note
S - Sixteenth Note/Semi-Quaver  S. - Dotted Sixteenth Note
Добавлено: 14.04.2016
Другие материалы по этой песне:
  • Аккорды и текст

Страница создана 14.04.2016
http://primanota.ru/prince/got-a-broken-heart-again-chords.htm
Привет, Гость.
Предлагаем пройти революционный курс по гитаре.
Подарок от PrimaNota.Ru, забирай!