PrimaNota.ru - самый крупный в мире бесплатный архив песенных текстов, аккордов, табулатур и нот


Prince - If I Was Youre Girlfriend - бас-таба, видео

Регистрация Запомнить меня
Войти через:  Facebook Google Twitter Vk Yandex Mail.ru

Prince - If I Was Youre Girlfriend - бас-таба, видео

Печатать
Просмотров: 29
                             If I Was Your Girlfriend
                                      Prince

Bass                                                              Prince 

As played by Prince

Intro

|-----------------|-----------------|-----------------|-----------15/17-|
|-----------------|-----------------|-----------------|-----------------|
|-----------------|-----------------|-----------------|-----------------|
|-----------------|-----------------|-----------------|-----------------|
  W                 W                 W                 H.        S  E.

||------10--10------|----/10--10------|----/10--10------|-----10--10-------||
||o-----------------|-----------------|-----------------|-----------------o||
||o-----------------|-----------------|-----------------|-------------8---o||
||--4-6-------------|-4-6-------------|-4-6-------------|-4-6--------------||
    E E E S E E.Q     E E E S E E.Q     E E E S E E.Q     E E E S E E.Q

Verse 1

|-----------------|-----------------|-----------------|-----------------|
|-----------------|-----------------|-----------------|-----------------|
|-----8-----------|-----8-------8---|-----8-----------|-----8-------8---|
|-4-6-------------|-4-6-------------|-4-6-------------|-4-6-------------|
  E E E E H         E E E E Q   E E   E E E E H         E E E E Q   E E  

|-----------------|-----------------|-----------------|-----------------|
|-----------------|-----------------|-----------------|-----------------|
|-----8-----------|-----8-----x-8---|-----8-----------|-----8-------8---|
|-4-6-------------|-4-6-------------|-4-6-------------|-4-6-------------|
  E E E E H         E E E E E.S E E   E E E E H         E E E E Q   E E  

|-----------------|-----------------|-----------------|-----------------|
|-----------------|-----------------|-----------------|-----------------|
|-----8-----------|-----8-------8---|-----8-----------|-----8-------8---|
|-4-6-------------|-4-6-------------|-4-6-------------|-4-6-------------|
  E E E E H         E E E E Q   E E   E E E E H         E E E E Q   E E  

|-----------------|-----------------|-----------------|-----------------|
|-----------------|-----------------|-----------------|-----------------|
|-----8-----------|-----8-------8---|-----8-----------|-----8---4---6---|
|-4-6-------------|-4-6-------------|-4-6-------------|-4-6-------------|
  E E E E H         E E E E Q   E E   E E E E H         E E E E Q   Q

Interlude 1 (same as intro)

||------10--10------|----/10--10------|----/10--10------|-----10--10-------||
||o-----------------|-----------------|-----------------|-----------------o||
||o-----------------|-----------------|-----------------|-------------8---o||
||--4-6-------------|-4-6-------------|-4-6-------------|-4-6--------------||
    E E E S E E.Q     E E E S E E.Q     E E E S E E.Q     E E E S E E.Q

Verse 2

|-----------------|-----------------|-----------------|-----------------|
|-----------------|-----------------|-----------------|-----------------|
|-----8-----------|-----8-------8---|-----8-----------|-----8-------8---|
|-4-6-------------|-4-6-------------|-4-6-------------|-4-6-------------|
  E E E E H         E E E E Q   E E   E E E E H         E E E E Q   E E  

|-----------------|-----------------|-----------------|-----------------|
|-----------------|-----------------|-----------------|-----------------|
|-----8-----------|-----8-------8---|-----8-----------|-----8---4---6---|
|-4-6-------------|-4-6-------------|-4-6-------------|-4-6-------------|
  E E E E H         E E E E Q   E E   E E E E H         E E E E Q   Q

|-----------------|-----------------|-----------------|-----------------|
|-----------------|-----------------|-----------------|-----------------|
|-----8-------8-6-|-----------------|-----------------|-----------------|
|-4-6-------------|-4-6-------------|-4-6-------------|-4-6-------------|
  E E E E Q   E E   E E Q   H         E E Q   H         E E Q   H

|-----10--10------|-----------------|----/10--10------|-----------------|
|-----------------|-----------------|-----------------|-----------------|
|-----------------|-----------------|-----------------|-----8---4---6---|
|-4-6-------------|-4-6-------------|-4-6-------------|-4-6-------------|
  E E E S E E.Q     E E Q   H         E E E S E E.Q     E E E E Q   Q

Interlude 2 (same as intro)

||------10--10------|----/10--10------|----/10--10------|-----10--10-------||
||o-----------------|-----------------|-----------------|-----------------o||
||o-----------------|-----------------|-----------------|-------------8---o||
||--4-6-------------|-4-6-------------|-4-6-------------|-4-6--------------||
    E E E S E E.Q     E E E S E E.Q     E E E S E E.Q     E E E S E E.Q

Bridge

|-----------------|-----------------|/5-------5--/8---|-----------------|
|-----------------|-----------------|---8-6-8---------|-----------------|
|-----8-----------|-----8-------8---|-----------------|---------3---6---|
|-4-4---4---------|-6-6---6---------|-----------------|-4---6-----------|
  E.S E E H         E.S E E Q   E E   E.S E E Q   Q     Q   Q   Q   Q

|-----------------|-----------------|-----------------|-----------------|
|-----------------|-----------------|--------/5-------|-6-6-6-6-8-9/7---|
|-----------------|-----------------|-----------------|-----------------|
|-2--2--2---------|-4---6---5---6---|-3---------------|-----------------|
  E. E. E H         Q   Q   Q   Q     H       H         E E E E E E Q

Verse 3

|-----10--10------|----/10--10------|----/10--10------|-----10--10------|
|-----------------|-----------------|-----------------|-----------------|
|-----------------|-----------------|-----------------|-------------8---|
|-4-6-------------|-4-6-------------|-4-6-------------|-4-6-------------|
  E E E S E E.Q     E E E S E E.Q     E E E S E E.Q     E E E S E E.Q

|----/10--10------|-----10--10------|-----10--10---10-|---10--10--10-10-8-6-|
|-----------------|-----------------|-----------------|---------------------|
|-----------------|-----------------|-----------------|---------------------|
|-4-6-------------|-4-6-------------|-4-6-------------|---------------------|
  E E E S E E.Q     E E E S E E.Q     E E E S E Q.  S   E E S E E.E  S  S E


|-----10--10------|-----10--10------|-----10--10------|-----------------|
|-----------------|-----------------|-----------------|-----8-----------|
|-----------------|-------------8---|-----------------|---------4---6---|
|-4-6-------------|-4-6-------------|-4-6-------------|-4-6-------------|
  E E E S E E.Q     E E E S E E.Q     E E E S E E.Q     E E E E Q   Q


|----/10--10------|----/10--10------|----/10--10------|----/10--10--8-6---|
|-----------------|-----------------|-----------------|-------------------|
|-----------------|-----------------|-----------------|-------------------|
|-4-6-------------|-4-6-------------|-4-6-------------|-4-6---------------|
  E E E S E E.Q     E E E S E E.Q     E E E S E E.Q     E E E S E S E Q

Outro

|-----10--10------|-----10--10------|-----------------|-------------------|
|-----------------|-----------------|----/7--/7-------|----/7---7---------|
|-----------------|-------------8---|-5-5-------------|-5-5---------------|
|-4-6-------------|-4-6-------------|-----------------|-------------4/6\1-|
  E E E S E E.Q     E E E S E E.Q     E E E S E E.Q     E E E S E S E E E   

|-----10--10------|-----10--10------|-----------------|-----------------|
|-----------------|-----------------|----/7--/7-------|----/7-----------|
|-----------------|-----------------|-5-5-------------|-5-5-----5-5-8-5-|
|-4-6-------------|-4-6-------------|-----------------|-----------------|
  E E E S E E.Q     E E E S E E.Q     E E E S E E.Q     E E E E E E S E.

|-----10--10------|-----10--8-10-8---|-----------------|-5-7-5-7-10--------------------|
|-----------------|------------------|-----------------|-------------------------------|
|-----------------|------------------|-5-5/8--/8-------|---------------5-5-5-4-3---3---|
|-4-6-------------|-4-6--------------|-----------------|-------------6-----------3---3-|
  E E E S E E.Q     E E E S E.S  E S   E E E S E E.Q     S S S E S S S S S S S S S S S

|-----10--10------|-----10--10--x-10-6-|-----------------|-10------10----------|
|-----------------|--------------------|-----------------|-------8-------------|
|-----------------|--------------------|-5-5/8--/8-------|-------------5-3---8-|
|-4-6-------------|-4-6----------------|-----------------|-----6---------------|
  E E E S E E.Q     E E E S E E S E  E   E E E S E E.Q     S S E E S S E E E E


|----/10--10------|----/10--10--------|----/10--10--------|----/10--10----10-----|
|-----------------|-------------------|-------------------|-----------------8-10-|
|-----------------|-------------x-x-x-|-------------x-x-x-|-4-6-------x-x--------|
|-4-6-------------|-6-8---------------|-9-9---------------|----------------------|
  E E E S E E.Q     E E E S E E.S S E   E E E S E E.S S E   E E E S E E E S S E

|-----------------|-----------------|-----------------|-----------------|
|-----------------|-----------------|-----------------|-----------------|
|-----8-----------|-----8-------8---|-----8-----------|-----8-------8---|
|-----------------|-----------------|-----------------|-----------------|
  Q   Q   H         Q   Q   Q   Q     Q   Q   H         Q   Q   Q   Q   

|-----------------|-----------------|-----------------|-----------------||
|-----------------|-----------------|-----------------|-----------------||
|-----8-----------|-----8-------8---|-----8-----------|-----8-----------||
|-----------------|-----------------|-----------------|-----------------||
  Q   Q   H         Q   Q   Q   Q     Q   Q   H         Q   Q   H

Key to rhythm notations:

W - Whole Note/Semi-Brieve
H - Half Note/Minim
Q - Quarter Note/Crotchet       Q. - Dotted Quarter Note
E - Eight Note/Quaver           E. - Dotted Eight Note
S - Sixteenth Note/Semi-Quaver  S. - Dotted Sixteenth Note
Добавлено: 14.04.2016
Другие материалы по этой песне:
  • Аккорды и текст

Страница создана 14.04.2016
http://primanota.ru/prince/if-i-was-youre-girlfriend-chords.htm
Привет, Гость.
Предлагаем пройти революционный курс по гитаре.
Подарок от PrimaNota.Ru, забирай!