PrimaNota.ru - самый крупный в мире бесплатный архив песенных текстов, аккордов, табулатур и нот


Primus - Pork Soda - текст песни, таба, бас-таба, видео

Регистрация Запомнить меня
Войти через:  Facebook Google Twitter Vk Yandex Mail.ru

Primus - Pork Soda - текст песни, таба, бас-таба, видео

Печатать
Просмотров: 117
Tabbed by: notenoughcharac
Email: benjaminret@gmail.com

This is the tab for Pork Soda by Primus. I think it's pretty accurate.

(0:02-0:35)
e|---------------------------------------------------------------------------|
B|-10101010101010---10101010101010---10101010101010---10101010101010---------|
G|---------------------------------------------------------------------------|
D|---------------------------------------------------------------------------|x4
A|---------------------------------------------------------------------------|
E|---------------------------------------------------------------------------|

(Those are 10's)

(0:35-0:41)
e|-101010101010h(11)---10101010101010---10101010101010-----------------------|
B|---------------------9-9-9-9-9-9-9----9-9-9-9-9-9-9------------------------|
G|---------------------------------------------------------------------------|
D|---------------------------------------------------------------------------|x1
A|---------------------------------------------------------------------------|
E|---------------------------------------------------------------------------|

Little rest (grab yourself a can o' pork soda...)

(0:50-1:13)
e|---------------------------------------------------------------------------|
B|-10101010101010---10101010101010---10101010101010---10101010101010---------|
G|---------------------------------------------------------------------------|
D|---------------------------------------------------------------------------|x3
A|---------------------------------------------------------------------------|
E|---------------------------------------------------------------------------|

(1:13-1:22)
e|---------------------------------------------------------------------------|
B|---------10101010101010---+7+---10101010101010---10101010-----10101010-----|
G|-+5+-----------------------------------------------------------------------|
D|----+5+--------------------------------------------------------------------|x1
A|---------------------------------------------------------------------------|
E|---------------------------------------------------------------------------|

(That's right, Ler only picks 4 times the last two "10's" sequences)

(1:23-1:28)
e|-10101010101010---10101010101010---10101010101010--------------------------|
B|-9-9-9-9-9-9-9----9-9-9-9-9-9-9----9-9-9-9-9-9-9---------------------------|
G|---------------------------------------------------------------------------|
D|---------------------------------------------------------------------------|x1
A|---------------------------------------------------------------------------|
E|---------------------------------------------------------------------------|

Little rest (grab yourself a can o' pork soda...)


(1:37-1:46)
e|-------------------------------------------------------------11111111----x-|
B|---------------------10101010\--------1010101010\--------101010101010----x-|
G|-8b--8888888\---/8b--------------/8b---------------/8b---------------------|
D|-7b------------------------------------------------------------------------|x1
A|---------------------------------------------------------------------------|
E|---------------------------------------------------------------------------|

(1:47-1:54)
e|---------------------------------------------------------------------------|
B|-----10101010101010---10101010101010---10101010101010-------10101010101010-|
G|--------------------------------------------------------8~-----------------|
D|-5b-----------------------------------------------------7~-----------------|x1
A|---------------------------------------------------------------------------|
E|---------------------------------------------------------------------------|

(1:53-2:01)
e|---------------------------------------------------------------------------|
B|-+7+---10101010101010---+7+-------10101010101010---10101010101010----------|
G|-+7+-----------------------------------------------------------------------|
D|-----------------------------7b---------------------------------------9----|x1
A|---------------------------------------------------------------------------|
E|---------------------------------------------------------------------------|

(2:01-2:06)
e|---------------------------------------------------------------------------|
B|------10101010101010---10101010101010-------------10101010101010-----------|
G|----------------------------------------+7+--------------------------------|
D|--------------------------------------------+7+----------------------------|x1
A|---------------------------------------------------------------------------|
E|---------------------------------------------------------------------------|

(2:06-2:13)
e|------------------------------------99b101010101010---10101010101010-------|
B|-10101010101010---10101010101010-------------------------------------------|
G|---------------------------------------------------------------------------|
D|---------------------------------------------------------------------------|x1
A|---------------------------------------------------------------------------|
E|---------------------------------------------------------------------------|

(2:13-2:18)
e|-----------10b10b10b1010101010---------------------------------------------|
B|-9-------------------------------------------------------------------------|
G|----+7+--------------------------------------------------------------------|
D|---------------------------------------------------------------------------|x1
A|---------------------------------------------------------------------------|
E|---------------------------------------------------------------------------|

END
************************************

| /   slide up
| \   slide down
| h   hammer-on
|( )  ghost note
| p   pull-off
| ~   vibrato
| +   harmonic
| x   Mute note
| b   Bend
| pb  Pre-bend
| br  Bend release
| pbr Pre-bend release
| brb Bend release bend

************************************
Добавлено: 20.06.2013
Другие материалы по этой песне:
  • Аккорды и текст

Страница создана 09.04.2012
http://primanota.ru/primus/pork-soda-chords.htm
Привет, Гость.
Предлагаем пройти революционный курс по гитаре.
Подарок от PrimaNota.Ru, забирай!