PrimaNota.ru - самый крупный в мире бесплатный архив песенных текстов, аккордов, табулатур и нот


Primus - Jillys On Smack - таба, видео

Регистрация Запомнить меня
Войти через:  Facebook Google Twitter Vk Yandex Mail.ru

Primus - Jillys On Smack - таба, видео

Печатать
Просмотров: 137
-----------------------------------------------------------------
Jilly's On Smack - Primus
-----------------------------------------------------------------
Tabbed by: funkymonk66
Email: sam@mwosb.co.uk

I saw that there was no tab on the site for this so i decided to do it myself. Listen to 
the song for exact timings. I hope you like it!

Tuning:EADGBe


Intro: 0:00-1:01 (its mostly feedback so just play around with F)


Main Riff Pt 1 1:02-1:30 (delay)
e||-----------------||
B||*---------------*||
G||-----------------||
D||-----9--12p9-----||
A||*--8---------11-*||
E||-----------------||



Occasionally switch to this:
Riff 1
e|----------------|
B|----------------|
G|-----13p10------|
D|---9-------12---|
A|-8--------------|
E|----------------|



Main Riff Pt 2 1:30-1:40
e||--------------------------------||
B||*-------15-----------15p12-----*||
G||-----13----13-----13-------13---||
D||--15-----------15---------------||
A||*------------------------------*||
E||--------------------------------||


1:40-1:42
Riff 2
e|----------------------------------|
B|-------15p12----------------------|
G|----13-------13-13p10-------------|
D|-15-------------------12-12p9-----|
A|------------------------------11--|
E|----------------------------------|


1:42-2:15 Main Riff Pt 1 w/ Riff 1 thrown in now and then

2:15-2:28 Main Riff Pt 2

2:28-2:30
Riff 3
e|-----------------------|
B|-------12-15-15/21-21--|
G|----13-----------------|
D|-15--------------------|
A|-----------------------|
E|-----------------------|

2:30-3:17 Main Riff Pt 1 w/ altered versions of riffs 1 and 2

3:17-3:31 Main Riff Pt 2

3:31-3:33
Riff 4
e|-------------16-16-19\--|
B|-------12-15------------|
G|----13------------------|
D|-15---------------------|
A|------------------------|
E|------------------------|

3:33-3:45 no guitar just bass and drums

3:45-4:06
Solo 1 (may not be 100% correct but it's close)
e|---------------------------------------------------------------|
B|-------------------------------------------------7////////-----|
G|----------------------------7--7--7-7-7\\--------7////////-----|
D|---------------------------------------------------------------|
A|-------------------//8------5--5--5-5-5\\----------------------|
E|-1--1--1b2--2b1----//8-----------------------------------------|

e|----------------------------------------15qb--19-20-17~~~~-----|
B|-13-----16-17-16----13-12--13----16-17-------------------------|
G|---------------------------------------------------------------|
D|---------------------------------------------------------------|
A|---------------------------------------------------------------|
E|---------------------------------------------------------------|

4:06-4:35 no guitar, the feedback is just an A

At about 4:40-5:07 w/ wah gradually getting louder
e||-------------------------------------------------------||
B||*-----------------------------------------------------*||
G||--1414-14-14-14-14-14-141414-14-14-14-14-121212121212--||
D||-------------------------------------------------------||
A||*-----------------------------------------------------*||
E||-------------------------------------------------------||

5:07-5:35
Solo 2
e|-13~~~~~~~~~~~\\\\\\\\\\---------------------------------------|
B|---------------------------------------------------------------|
G|--------------------------------------------------141414141414-|
D|---------------------------------------------------------------|
A|-----------------------------12121212121212\\\\----------------|
E|---------------------------------------------------------------|

e|---------------------------------------------------------------|
B|---------------------------------------------------------------|
G|-12b14~~~~~~~~~~14b12\\\\\\\\----------------------------------|
D|---------------------------------------------------------------|
A|---------------------------------------------------------------|
E|---------------------------------------------------------------|

This bit was really hard to work out but I think this is pretty close
e|---------------------------------------------------------------|
B|-----------------------------------------------15p12-----------|
G|---------------------------------------10--13--------13--------|
D|---------------9--12--9----------9-12-------------------15-12--|
A|-7--8--10--11------------8-10-11-------------------------------|
E|---------------------------------------------------------------|

e|-22~~~~~~~~~\\-------------------------------------------------|
B|---------------------------------------------------------------|
G|---------------------------------------------------------------|
D|---------------------------------------------------------------|
A|---------------------------------------------------------------|
E|---------------------------------------------------------------|

5:35-5:43 no guitar just bass

5:43-5:58 Main Riff Pt 1

5:58-6:07 Main Riff Pt 2 w/ Riff 2

6:07-end Main Riff Pt 1

Well that's it!! I know that there's going to be some small bits that I missed so feel 
free to correct me. Took me a long time to tab so I hope it's helpful.

| /  slide up
| \  slide down
| h  hammer-on
| p  pull-off
| ~  vibrato
| +  harmonic
| x  Mute note
Добавлено: 03.12.2013
Другие материалы по этой песне:
  • Аккорды и текст

Страница создана 03.12.2013
http://primanota.ru/primus/jillys-on-smack-chords.htm
Привет, Гость.
Предлагаем пройти революционный курс по гитаре.
Подарок от PrimaNota.Ru, забирай!