PrimaNota.ru - самый крупный в мире бесплатный архив песенных текстов, аккордов, табулатур и нот


Прилепина Кристина - Всю ночь - аккорды и текст, видео

Регистрация Запомнить меня
Войти через:  Facebook Google Twitter Vk Yandex Mail.ru

Прилепина Кристина - Всю ночь - аккорды и текст, видео

Печатать
Просмотров: 1358
Всю ночь
Прилепина Кристина
Dm         Dsus2              A#                 C
E||--1--------1---------|--0--------0---------|--1--------1---------|--0--------0--------||
B||-----3--------3------|-----3--------3------|-----3--------3------|-----1--------1-----||
G||--------2--------2---|--------2--------2---|--------3--------3---|--------0--------0--||
D||--0------------------|---------------------|---------------------|--------------------||
A||---------------------|--0------------------|--1------------------|--3-----------------||
E||---------------------|---------------------|---------------------|--------------------||
 
Dm    Dsus2
Нечем здесь помочь
 A#      C
Ведь дождь льёт всю ночь
Дождь льёт всю ночь
Дождь всю ночь

Dm Dsus2   A#     C
Горячие слова обжигают душу
За окном моря, а я хочу сушу
За окном моря, а я хочу сушу

Нечем здесь помочь
Ведь дождь льёт всю ночь
Дождь льёт всю ночь
Дождь всю ночь

Небо стало слишком серым
Конечно я хотела, чтобы оно было белым
Капли бьют по зонтам
Капли бьют по лужам
Капли бьют по зонтам
Капли бьют по лужам
Капли бьют по лужам

Нечем здесь помочь
Ведь дождь льёт всю ночь
Дождь льёт всю ночь
Дождь всю ночь

Гром и гроза - два неразлучных друга
В слезах все глаза
Мы потеряли друг друга
В слезах все глаза
Мы потеряли друг друга

Жизнь так коротка и незаметна
Как бесцветная метка
Жизнь так коротка и незаметна
Как бесцветная метка

Горячие слова обжигают душу
За окном моря, а я хочу сушу
За окном моря, а я хочу сушу

Нечем здесь помочь
Ведь дождь льёт всю ночь
Дождь льёт всю ночь
Дождь всю ночь

Нечем здесь помочь
Ведь дождь льёт всю ночь
Дождь льёт всю ночь
Дождь всю ночь

Примечание:
 Dsus4          
E||--0-----||
B||--3-----||
G||--2-----||
D||--0-----||
A||--0-----||
E||--------||
Добавлено: 23.09.2013
Другие материалы по этой песне:
  • Аккорды и текст

Страница создана 13.08.2013
http://primanota.ru/prilepina-kristina/vsyu-noch-chords.htm
Привет, Гость.
Предлагаем пройти революционный курс по гитаре.
Подарок от PrimaNota.Ru, забирай!