PrimaNota.ru - самый крупный в мире бесплатный архив песенных текстов, аккордов, табулатур и нот


Pretenders - Babys Breath - текст песни, бас-таба, видео

Регистрация Запомнить меня
Войти через:  Facebook Google Twitter Vk Yandex Mail.ru

Pretenders - Babys Breath - текст песни, бас-таба, видео

Печатать
Просмотров: 129
Intro
G |------------------------------------------------------|
D |------------------------------------------------------|
A |-2--5---------2--5------------------------------------|
E |------2--5-25-------2--3-3-3-3------------------------|

Verse 1-In between singing parts
G |------------------------------------------------------|
D |------------------------------------------------------|
A |-3-3-3-3----------------------------------------------|
E |------------------------------------------------------|

Prechorus
G |------------------------------------------------------|
D |------------------------------------------------------|
A |-5-5-5-5-5-5-5-5-3-3-3-3-3-3-3-3--5-------------------|
E |------------------------------------------------------|

Chorus
G |------------------------------------------------------|
D |-5-0--2-0-2--5-0--2-0-2------0-2--2-2-0---------------|
A |-----2----------2------2-0-2----2-------2-0-2/3-1/2---|
E |------------------------------------------------------|

G |------------------------------------------------------|
D |-------2-0--------------------------------------------|
A |-----2----3--3-3--------------------------------------|
E |-3/5--------------------------------------------------|
Verse 2

G |-------------2------2---------------2-----2------------|
D |---------0-2--2-0-2--2----------0-2--2-0-2--2----------|
A |-0-2-0-2---------------0-0-2-0-2--------------0-0-0-0--|
E |-------------------------------------------------------|


G |-4-2--------------------------------------------------|
D |-----0-0-0-0-2-0--------------------------------------|
A |-----------------2-2-2-2------------------------------|
E |-------------------------3-3-3-2----------------------|

-Chorus-

Bridge
G |-----0----------0--------------------------------------|
D |------4-0---------4-0----------------------------------|
A |-2-22-----2--22----------------2-2-0-2---------2-2-0-2-|
E |-----------------------0-0-2-0---------0-0-2-0---------|
“I'd like to have you…”
G |-------------------------------------------------------|
D |------------0-0-0-0------------------------------------|
A |-3-2-3-2-------------2-2-2-2-3-3-3-3-33----------------|
E |-------------------------------------------------------|

-Play Chorus (x3-fade out)
Добавлено: 07.03.2012
Другие материалы по этой песне:
  • Аккорды и текст

Страница создана 28.02.2012
http://primanota.ru/pretenders/babys-breath-chords.htm
Привет, Гость.
Предлагаем пройти революционный курс по гитаре.
Подарок от PrimaNota.Ru, забирай!