PrimaNota.ru - самый крупный в мире бесплатный архив песенных текстов, аккордов, табулатур и нот


Portishead - Hunter - текст песни, таба, видео

Регистрация Запомнить меня
Войти через:  Facebook Google Twitter Vk Yandex Mail.ru

Portishead - Hunter - текст песни, таба, видео

Печатать
Просмотров: 149
Авторы: Geoff Barrow, Beth Gibbons, Adrian Utley

Song   HUNTER
Artist PORTISHEAD
Album  THIRD (2008)

Standard Tuning: EADGBE

VERSE

Cm Ebm Bm Cm

INTERLUDE 1

Guitar 1: repeat the following bar.

  E  E  E  E  E  E  E  E    
--------------------------||
--------------------------||
--------------------------||
-----------3-----------3--||
--0-----4-----0-----4-----||
-----6-----------6--------||

Guitar 2: play the note on the 4th fret, and slowly bend one tone up.

  W                   
--------------------||
--------------------||
--------------------||
--------------------||
--------------------||
--4b-(6)------------||

INTERLUDE 2

Guitar:

  E  E  E  E  E  E  E  E    
--------------------------||
--------------------------||
--------------------------||
-----------3-----------3--||
--0-----4-----0-----4-----||
-----6-----------6--------||

Keyboard:

     E   E   E   E   E   E   E   E   
|---------------13--------------13---||
|-----------14--------------14-------||
|*--14--15----------14--15----------*||
|*----------------------------------*||
|------------------------------------||
|------------------------------------||
|
|    E   E   E   E   E   E   E   E
|------------------------------------||
|------------------------------------||
|*--10--------------10--------------*||
|*------11--------------11----------*||
|-----------13--12----------13--12---||
|------------------------------------||

OUTRO

  Cm
  E  E  E  E  E  E  E  E     E  E  E  E  E  E  E  E   
--------------------------|--------------------------|
--3-----4-----3-----4-----|--3-----4-----3-----4-----|
-----------5-----------5--|-----------5-----------5--|
-----5-----------5--------|-----5-----------5--------|
--------------------------|--------------------------|
--------------------------|--------------------------|

  Ebm
  E  E  E  E  E  E  E  E     E  E  E  E  E  E  E  E   
--------------------------|--------------------------|
--6-----7-----6-----7-----|--6-----7-----6-----7s----|
-----------8-----------8--|-----------8-----------8--|
-----8-----------8--------|-----8-----------8--------|
--------------------------|--------------------------|
--------------------------|--------------------------|

  D(b5)
  E   E   E   E  E   E   E   E     E   E   E   E  E   E   E   E         
--------------------------------|--------------------------------|
--9------10------9------10------|--9------10------9------10------|
-------------11-------------11--|-------------11-------------11--|
-----12-------------12----------|-----12-------------12----------|
--------------------------------|--------------------------------|
--------------------------------|--------------------------------|

  Cm
  E  E  E  E  E  E  E  E     E  E  E  E  E  E  E  E   
--------------------------|--------------------------|
--3-----4-----3-----4-----|--3-----4-----3-----4-----|
-----------5-----------5--|-----------5-----------5--|
-----5-----------5--------|-----5-----------5--------|
--------------------------|--------------------------|
--------------------------|--------------------------|

LYRICS:

VERSE
No-one said
We'd ever known each other
And new evidence is what we require
In this world

INTERLUDE 1
I stand on the edge of a broken sky
And I will come down, don't know why

VERSE
And if I should fall, would you hold me?
Would you pass me by?
For you know I'd ask you for nothing
Just to wait for a while

INTERLUDE 2

INSTRUMENTAL VERSE

VERSE
So confused
My thoughts are takin' over
Unwanted, arising space me instead
Won't let go

INTERLUDE 1
I stand on the edge of a broken sky
And I will come down; don't know why

VERSE
And if I should fall, would you hold me?
Would you pass me by?
For you know I'd ask you for nothing
Just to wait for a while

INTERLUDE 2

OUTRO
Добавлено: 24.08.2013
Другие материалы по этой песне:
  • Аккорды и текст

Страница создана 24.08.2013
http://primanota.ru/portishead/hunter-chords.htm
Привет, Гость.
Предлагаем пройти революционный курс по гитаре.
Подарок от PrimaNota.Ru, забирай!