PrimaNota.ru - самый крупный в мире бесплатный архив песенных текстов, аккордов, табулатур и нот


Portishead - Small - текст песни, таба, бас-таба, видео

Регистрация Запомнить меня
Войти через:  Facebook Google Twitter Vk Yandex Mail.ru

Portishead - Small - текст песни, таба, бас-таба, видео

Печатать
Просмотров: 111
Авторы: Geoff Barrow, Beth Gibbons, Adrian Utley

-------------------------------------------------------------------------------
			     Small - Portishead
-------------------------------------------------------------------------------

Tuning: Standard

Intro (0:00)
e|---------------------------------------------------------------------------|
B|---------------------------------------------------------------------------|
G|---------------------------------------------------------------------------|
D|--------------------------------2------------------------------------------|      let ring
A|-----------------0-----------------------3---------------------------------|
E|-0-------------------------------------------------------------------------|

Verse (0:09)
e|---------------------------------------------------------------------------|
B|---------------------------------------------------------------------------|
G|------------2--------------------2-----------------------------------------|
D|------0--------------------0-----------------------------------------------|       x20
A|-0--------------------1----------------------------------------------------|
E|---------------------------------------------------------------------------|

Bridge (1:09)
e|---------------------------------------------------------------------------|
B|---------------------------------------------------------------------------|
G|---------------------------------------------------------------------------|
D|---------------------------------------------------------------------------|
A|---------------------------------------------------------------------------|
E|---------------------------------------------------------------------------|

Solo (2:30)
e|---------------------------------------------------------------------------|
B|-11--11--11--9h11--11--11--9h11--11--11--9--9--12--------------------------|
G|---------------------------------------------------------------------------|
D|---------------------------------------------------------------------------|
A|---------------------------------------------------------------------------|
E|---------------------------------------------------------------------------|

e|---------------------------------------------------------------------------|
B|-11--11--11--9h11--11--11--9h11--11--11--9--9--12--------------------------|
G|---------------------------------------------------------------------------|
D|---------------------------------------------------------------------------|
A|---------------------------------------------------------------------------|
E|---------------------------------------------------------------------------|

e|---------------------------------------------------------------------------|
B|-11--11--11--9h11--11--11--9h11--11--11--9--9--12--------------------------|
G|---------------------------------------------------------------------------|
D|---------------------------------------------------------------------------|
A|---------------------------------------------------------------------------|
E|---------------------------------------------------------------------------|

e|---------------------------------------------------------------------------|
B|-11--11--11--9h11--11--11--9h11--11--11--9--9--12--------------------------|
G|---------------------------------------------------------------------------|
D|---------------------------------------------------------------------------|
A|---------------------------------------------------------------------------|
E|---------------------------------------------------------------------------|

(2:55)
e|--11--11--11--9h11--11--11--11--9h11--11--11--9--9--12---------------------|
B|--11--11--11--9h11--11--11--11--9h11--11--11--9--9--12---------------------|
G|---------------------------------------------------------------------------|
D|---------------------------------------------------------------------------|
A|---------------------------------------------------------------------------|
E|---------------------------------------------------------------------------|

e|--11--11--11--9h11--11--11--11--9h11--11--11--11--9--7---------------------|
B|--11--11--11--9h11--11--11--11--9h11--11--11--11--9--7---------------------|
G|---------------------------------------------------------------------------|
D|---------------------------------------------------------------------------|
A|---------------------------------------------------------------------------|
E|---------------------------------------------------------------------------|

(3:07)
e|---------------------------------------------------------------------------|
B|-11--11--11--9h11--11--11--9h11--11--11--9--9--12--------------------------|
G|---------------------------------------------------------------------------|
D|---------------------------------------------------------------------------|
A|---------------------------------------------------------------------------|
E|---------------------------------------------------------------------------|

e|---------------------------------------------------------------------------|
B|-11--11--11--9h11--11--11--9h11--11--11--9--9--12--------------------------|
G|---------------------------------------------------------------------------|
D|---------------------------------------------------------------------------|
A|---------------------------------------------------------------------------|
E|---------------------------------------------------------------------------|

(3:19)
e|--11--11--11--9h11--11--11--11--9h11--11--11--11--9--7---------------------|
B|--11--11--11--9h11--11--11--11--9h11--11--11--11--9--7---------------------|
G|---------------------------------------------------------------------------|
D|---------------------------------------------------------------------------|
A|---------------------------------------------------------------------------|
E|---------------------------------------------------------------------------|

(3:25)
e|---------------------------------------------------------------------------|
B|-11--11--11--9h11--11--11--9h11--11--11--9--9--12--------------------------|
G|---------------------------------------------------------------------------|
D|---------------------------------------------------------------------------|
A|---------------------------------------------------------------------------|
E|---------------------------------------------------------------------------|

(3:31)
e|--11--11--11--9h11--11--11--11--9h11--11--11--9--9--12---------------------|
B|--11--11--11--9h11--11--11--11--9h11--11--11--9--9--12---------------------|
G|---------------------------------------------------------------------------|
D|---------------------------------------------------------------------------|
A|---------------------------------------------------------------------------|
E|---------------------------------------------------------------------------|

e|--11--11--11--9h11--11--11--11--9h11--11--11--11--9--7---------------------|
B|--11--11--11--9h11--11--11--11--9h11--11--11--11--9--7---------------------|
G|---------------------------------------------------------------------------|
D|---------------------------------------------------------------------------|
A|---------------------------------------------------------------------------|
E|---------------------------------------------------------------------------|

e|--11--11--11--9h11--11--11--11--9h11--11--11--9--9--12---------------------|
B|--11--11--11--9h11--11--11--11--9h11--11--11--9--9--12---------------------|
G|---------------------------------------------------------------------------|
D|---------------------------------------------------------------------------|
A|---------------------------------------------------------------------------|
E|---------------------------------------------------------------------------|

e|--11--11--11--9h11--11--11--11--9h11--11--11--11--9--7---------------------|
B|--11--11--11--9h11--11--11--11--9h11--11--11--11--9--7---------------------|
G|---------------------------------------------------------------------------|
D|---------------------------------------------------------------------------|
A|---------------------------------------------------------------------------|
E|---------------------------------------------------------------------------|

(3:55)
e|---------------------------------------------------------------------------|
B|-11--11--11--9h11--11--11--9h11--11--11--9--9--12--------------------------|
G|---------------------------------------------------------------------------|
D|---------------------------------------------------------------------------|
A|---------------------------------------------------------------------------|
E|---------------------------------------------------------------------------|

e|---------------------------------------------------------------------------|
B|-11--11--11--9h11--11--11--9h11--11--11--9--9--12--------------------------|
G|---------------------------------------------------------------------------|
D|---------------------------------------------------------------------------|
A|---------------------------------------------------------------------------|
E|---------------------------------------------------------------------------|

(4:08)
e|--11--11--11--9h11--11--11--11--9h11--11--11--9--9--12---------------------|
B|--11--11--11--9h11--11--11--11--9h11--11--11--9--9--12---------------------|
G|---------------------------------------------------------------------------|
D|---------------------------------------------------------------------------|
A|---------------------------------------------------------------------------|
E|---------------------------------------------------------------------------|

e|--11--11--11--9h11--11--11--11--9h11--11--11--11--9--7---------------------|
B|--11--11--11--9h11--11--11--11--9h11--11--11--11--9--7---------------------|
G|---------------------------------------------------------------------------|
D|---------------------------------------------------------------------------|
A|---------------------------------------------------------------------------|
E|---------------------------------------------------------------------------|

e|--6------------------------------------------------------------------------|
B|--7------------------------------------------------------------------------|
G|---------------------------------------------------------------------------|
D|---------------------------------------------------------------------------|      let ring
A|---------------------------------------------------------------------------|
E|---------------------------------------------------------------------------|

Bridge (4:22)
e|---------------------------------------------------------------------------|
B|---------------------------------------------------------------------------|
G|---------------------------------------------------------------------------|
D|---------------------------------------------------------------------------|
A|---------------------------------------------------------------------------|
E|---------------------------------------------------------------------------|

Outro (5:48)
e|---------------------------------------------------------------------------|
B|--11----11----11----11----11----------11----11----11----11-----------------|
G|---------------------------------------------------------------------------|
D|---------------------------------------------------------------------------|
A|---------------------------------------------------------------------------|
E|---------------------------------------------------------------------------|

e|---------------------------------------------------------------------------|
B|--11----------11----11----11----11----11----------9----9-------------------|
G|---------------------------------------------------------------------------|
D|---------------------------------------------------------------------------|
A|---------------------------------------------------------------------------|
E|---------------------------------------------------------------------------|

e|---------------------------------------------------------------------------|
B|--11----11----11----11----11----------11----11----11----11-----------------|
G|---------------------------------------------------------------------------|
D|---------------------------------------------------------------------------|
A|---------------------------------------------------------------------------|
E|---------------------------------------------------------------------------|

e|---------------------------------------------------------------------------|
B|--11----------11----11----11----11----11----------9----9-------------------|
G|---------------------------------------------------------------------------|
D|---------------------------------------------------------------------------|
A|---------------------------------------------------------------------------|
E|---------------------------------------------------------------------------|

e|---------------------------------------------------------------------------|
B|--11----11----11----11----11----------11----11----11----11-----------------|
G|---------------------------------------------------------------------------|
D|---------------------------------------------------------------------------|
A|---------------------------------------------------------------------------|
E|---------------------------------------------------------------------------|

e|---------------------------------------------------------------------------|
B|--11----------11----11----11----11----11----------9----9-------------------|
G|---------------------------------------------------------------------------|
D|---------------------------------------------------------------------------|
A|---------------------------------------------------------------------------|
E|---------------------------------------------------------------------------|

e|--11----11----11----11----11----------9----9----9----9----9----9-----------|
B|--11----11----11----11----11----------9----9----9----9----9----9-----------|
G|---------------------------------------------------------------------------|
D|---------------------------------------------------------------------------|
A|---------------------------------------------------------------------------|
E|---------------------------------------------------------------------------|

e|--9----9----9----9----9----9----9----9----9----9----9----9----9------------|
B|--9----9----9----9----9----9----9----9----9----9----9----9----9------------|
G|---------------------------------------------------------------------------|
D|---------------------------------------------------------------------------|
A|---------------------------------------------------------------------------|
E|---------------------------------------------------------------------------|

e|--9----9----9----9----9----------------------------------------------------|
B|--9----9----9----9----9----------------------------------------------------|
G|---------------------------------------------------------------------------|
D|---------------------------------------------------------------------------|
A|---------------------------------------------------------------------------|
E|---------------------------------------------------------------------------|

(6:32)
e|---------------------------------------------------------------------------|
B|----9~--9~----------11~----------11~----------9~--9~-----------------------|
G|---------------------------------------------------------------------------|
D|---------------------------------------------------------------------------|
A|---------------------------------------------------------------------------|
E|---------------------------------------------------------------------------|

e|---------------------------------------------------------------------------|
B|-11~----------11~----------9~--9~----------11~---------11~-----------------|
G|---------------------------------------------------------------------------|
D|---------------------------------------------------------------------------|
A|---------------------------------------------------------------------------|
E|---------------------------------------------------------------------------|

e|------------------|
B|------9~--9~------|
G|------------------|
D|------------------|
A|------------------|
E|------------------|

| /  slide up
| \  slide down
| h  hammer-on
| p  pull-off
| ~  vibrato
| +  harmonic
| x  Mute note

The timing may not be 100% accurate and I've only tabbed the 
main guitar part but there is also a 2nd tremolo picked guitar 
with some weird effects that is played in the background 
towards the end which i haven't tabbed.

Please rate this tab!
===============================================================================
Добавлено: 07.12.2013
Другие материалы по этой песне:
  • Аккорды и текст

Страница создана 14.09.2013
http://primanota.ru/portishead/small-chords.htm
Привет, Гость.
Предлагаем пройти революционный курс по гитаре.
Подарок от PrimaNota.Ru, забирай!