PrimaNota.ru - самый крупный в мире бесплатный архив песенных текстов, аккордов, табулатур и нот


Poison - Your Mama Dont Dance - текст песни, таба, бас-таба, видео

Регистрация Запомнить меня
Войти через:  Facebook Google Twitter Vk Yandex Mail.ru

Poison - Your Mama Dont Dance - текст песни, таба, бас-таба, видео

Печатать
Просмотров: 214
Авторы: Kenny Loggins, Jim Messina

Poison – Your mama don't dance


Intro                           x8
|--------------------------|
|--2-----------------------|
|--1------------1-3---1----|
|---------2-3--------------|
|--4-----------------------|
|--------------------------|

Verse
|------------------------|--------------------------|------------------------|------------------------|
|--2---------------------|--------------------------|------------------------|------------------------|
|--1------------1-3---1--|--------------------------|--6---------------------|--6---------------------|
|---------2-3------------|-----------------1--------|--6----------6-8----6---|--6----------6-8----6---|
|--4---------------------|--4------0-1---4-------4--|--4-----7-8-------------|--4-----7-8-------------|
|------------------------|--2-----------------------|------------------------|------------------------|

|------------------------|--------------------------|------------------------|------------------------|
|------------------------|--------------------------|------------------------|------------------------|
|------------------------|--------------------------|--6---------------------|--6---------------------|
|-----------------1------|-----------------1--------|--6----------6-8----6---|--6----------6-8----6---|
|--4------0-1---4------4-|--4------0-1---4-------4--|--4-----7-8-------------|--4-----7-8-------------| 
|--2---------------------|--2-----------------------|------------------------|------------------------|

|------------------------|--------------------------|------------------------|------------------------|
|------------------------|--------------------------|------------------------|------------------------|
|------------------------|--------------------------|--6---------------------|--6---------------------|
|------------------------|------------------1-------|--6----------6-8----6---|--6---------6-8----6----|
|--6----------6-8----6---|--4-------0-1---4------4--|--4-----7-8-------------|--4----7-8--------------| 
|--4-----7-8-------------|--2-----------------------|------------------------|------------------------|

|------------------------|--------------------------|------------------------|------------------------|
|------------------------|--------------------------|------------------------|------------------------|
|--6---------------------|--------------------------|--6---------------------|--6---------------------|
|--6----------6-8----6---|------------------1-------|--6----------6-8----6---|--6---------6-8----6----|
|--4-----7-8-------------|--4-------0-1---4------4--|--4-----7-8-------------|--4----7-8--------------| 
|------------------------|--2-----------------------|------------------------|------------------------|

|------------------------|--------------------------|------------------------|------------------------|
|------------------------|--------------------------|------------------------|------------------------|
|--6----------6-8----6---|--6----------6-8----6-----|--6---------------------|--6---------------------|
|--4-----7-8-------------|--4-----7-8---------------|--6-----------6-8----6--|--6----------6-8----6---|
|------------------------|--------------------------|--4-----7-8-------------|--4-----7-8-------------|
|------------------------|--------------------------|------------------------|------------------------|

|------------------------|--------------------------|------------------------|------------------------| 
|---------0----4-6----4--|----------------2-4---2---|--2---------------------|--2---------------------|
|--8--------5------------|--6--------2-3------------|--1------------1-3---1--|--1---------------------|
|--6---------------------|--4-----------------------|---------2-3------------|------------------------|
|------------------------|--------------------------|--4---------------------|--4---------------------|
|------------------------|--------------------------|------------------------|------------------------|

Chorus
|------------------------|--------------------------|------------------------|------------------------| 
|------------------------|--------4---2---2-4---2---|------------------------|------------------------|
|--------3---------3-----|--6---6-------------------|--------3---------3-----|--------3---------3-----|
|--6---6-----6---6-----6-|--4---4-4---4---4-4---4---|--6---6-----6---6-----6-|--6---6-----6---6-----6-|
|--4---4-4---4---4-4---4-|--------------------------|--4---4-4---4---4-4---4-|--4---4-4---4---4-4---4-|
|------------------------|--------------------------|------------------------|------------------------|

|------------------------|--------------------------|------------------------|------------------------|
|--2----2--4----2----4---|--2----2--4----2----4-----|------------------------|------------------------|
|------------------------|--------------------------|--------3---------3-----|--------3---------3-----|
|--4----4--4----4----4---|--4----4--4----4----4-----|--6---6-----6---6-----6-|--6---6-----6---6-----6-|
|------------------------|--------------------------|--4---4-4---4---4-4---4-|--4---4-4---4---4-4---4-|
|------------------------|--------------------------|------------------------|------------------------|

|------------------------|--------------------------|------------------------|------------------------|
|--4---4-6---4---4-6---4-|--------4---2---2-4---2---|------------------------|------------------------|
|------------------------|--6---6-------------------|--------3---------3-----|--------3---------3-----|
|--6---6-6---6---6-6---6-|--4---4-4---4---4-4---4---|--6---6-----6---6-----6-|--6---6-----6---6-----6-|
|------------------------|--------------------------|--4---4-4---4---4-4---4-|--4---4-4---4---4-4---4-|
|------------------------|--------------------------|------------------------|------------------------|

Bridge
|--2--------1-|--2—-------1-|--2--------1-|--2—-------1-|--2--------1-|--2—-------1-|--2--------1-|--2--|
|--2--------1-|--2--------1-|--2--------1-|--2—-------1-|--2--------1-|--2—-------1-|--2--------1-|--2--|
|-------------|-------------|-------------|-------------|-------------|-------------|-------------|-----|
|--4--------3-|--4--------3-|--4--------3-|--4--------3-|--4--------3-|--4--------3-|--4--------3-|--4--|
|-------------|-------------|-------------|-------------|-------------|-------------|-------------|-----|
|-------------|-------------|-------------|-------------|-------------|-------------|-------------|-----|

|------------------------|------------------------|------------------------|------------------------|
|------------------------|------------------------|------------------------|------------------------|
|------------------------|------------------------|--------3---------3-----|------------------------|
|--------3---------3-----|--------1---------1-----|--6---6-----6---6-----6-|--6---------------------|
|--6---6-----6---6-----6-|--4---4-----4---4-----4-|--4---4-4---4---4-4---4-|--4---------------------|
|--4---4-4---4---4-4---4-|--2---2-2---2---2-2---2-|------------------------|------------------------|

End
|--------|--------|--------|--------|--------|--------|--------|--------|
|--------|--------|--------|--------|--------|--------|--------|--------|                               
|--6-----|--------|--6-----|--------|--------|--------|--6-----|--------|
|--6-----|--4-----|--6-----|--------|--4-----|--4-----|--6-----|--------|
|--4-----|--4-----|--4-----|--------|--4-----|--4-----|--4-----|--------|
|--------|--2-----|--------|--------|--2-----|--2-----|--------|--------|

                                                    x3
|--------------------------------------|--------------|-----------------|-----------------|--------------|
|--4--4--4--4--4--4--4--4--4--4--4--4--|--------------|-----------------|-----------------|--------------|
|--------------------------------------|--6-----------|-----------------|----------0------|--------------|
|--6--6--6--6--6--6--6--6--6--6--6--6--|--4-----------|--6-----------0--|------4-------6--|-----6-----6--|
|--------------------------------------|--------------|--4---3---4------|--6---2---3---4--|-----4-----4--|
|--------------------------------------|--------------|------1---2---3--|--4--------------|--------------|
Добавлено: 18.05.2012
Другие материалы по этой песне:

Страница создана 14.03.2012
http://primanota.ru/poison/your-mama-dont-dance-chords.htm
Привет, Гость.
Предлагаем пройти революционный курс по гитаре.
Подарок от PrimaNota.Ru, забирай!