PrimaNota.ru - самый крупный в мире бесплатный архив песенных текстов, аккордов, табулатур и нот


Poison - Love On The Rocks - текст песни, таба, видео

Регистрация Запомнить меня
Войти через:  Facebook Google Twitter Vk Yandex Mail.ru

Poison - Love On The Rocks - текст песни, таба, видео

Печатать
Просмотров: 108
 A5                   A6                   D5                  
Dsus4
      x 0 2 x x x          x 0 4 x x x          x x 0 2 3 x          x x 0 0 
3 x

          F5                   C5                   C#5
      1 3 3 x x x          x 3 5 5 x x          x 4 6 6 x x

Gtr I (E A D G B E) - 'Untitled'

  Q=145
4/4
  E   +E  E E E Q  Q    E E E E E e E E   +E  E E E Q  Q
|---|-----------------|-----------------|-----------------|
|---|-----------------|-----------------|-----------------|
|-2-|-(2)-2---2-2-----|---------------2-|-(2)-2---2-2-----|
|-2-|-(2)-2-4-2-2-----|---------------2-|-(2)-2-4-2-2-----|
|-0-|-(0)-0-0-0-0-----|-----2---3-2---0-|-(0)-0-0-0-0-----|
|---|-----------------|---3---3---------|-----------------|


  E E E E E E E E   +E  E E E Q  Q    E E E E E E E E   +E  E E E Q  Q
|-----------------|-----------------|-----------------|------------------|
|-----------------|-----------------|-----------------|------------------|
|---------------2-|-(2)-2---2-2-----|---------------2-|-(2)-2---2-2------|
|---------------2-|-(2)-2-4-2-2-----|---------------2-|-(2)-2-4-2-2------|
|-----2---5-3-2-0-|-(0)-0-0-0-0-----|-----2---3-2---0-|-(0)-0-0-0-0------|
|---3---3---------|-----------------|---3---3---------|------------------|


                                  1/  1/
                                  |----3----|
  E E E E E E E E   +W           +Q   +Q   +Q  +H        H.
|-----------------|------------|----------------------||-------|
|-----------------|------------|----------------------||-------|
|---------------2-|-(2)--------|-(2)--(2)--(2)-(2)----||-2----|
|---------------2-|-(2)--------|-(2)--(2)--(2)-(2)----||-2----|
|-----2---5-3-2-0-|-(0)--------|-(0)--(0)--(0)-(0)----||-0----|
|---3---3---------|------------|----------------------||-------|
                                                         Q


  W          E E Q  Q.   E   E E Q  Q.   E   H    H
|----------|---------------|---------------|-----------|
|----------|---------------|---------------|-----------|
|----------|---2----2------|---2----2----2-|-2---------|
|----------|---2-4--2------|---2-4--2----2-|-2---------|
|----------|---0-0--0------|---0-0--0----0-|-0---------|
|----------|---------------|---------------|-----------|


  W          E E Q  Q.   E   E E Q  Q.   E   Q  Q  H
|----------|---------------|---------------|------------|
|----------|---------------|---------------|------------|
|----------|---2----2------|---2----2----2-|-2----------|
|----------|---2-4--2------|---2-4--2----2-|-2----------|
|----------|---0-0--0------|---0-0--0----0-|-0----------|
|----------|---------------|---------------|------------|


  W          E E Q  Q.   E   E E Q  Q.   E   Q  Q  H
|----------|---------------|---------------|------------|
|----------|---------------|---------------|------------|
|----------|---2----2------|---2----2----2-|-2----------|
|----------|---2-4--2------|---2-4--2----2-|-2----------|
|----------|---0-0--0------|---0-0--0----0-|-0----------|
|----------|---------------|---------------|------------|


  W          Q.   Q.   Q    +E  Q.   Q  Q    Q.   Q.   Q
|----------|--------------|----------------|---------------|
|----------|-3----3----3--|-(3)-3----3--3--|-3----3----3---|
|----------|-2----2----2--|-(2)-2----2--2--|-0----0----0---|
|----------|-0----0----0--|-(0)-0----0--0--|-0----0----0---|
|----------|--------------|----------------|---------------|
|----------|--------------|----------------|---------------|


   E  Q.   Q  E E   +Q   E E +Q.   +E       H     H      E E E E Q  E E
|-----------------|---------------------|--------------|-----------------|
|-(3)-3-----------|---------------------|--------17----|-----------------|
|-(0)-0---------2-|-(2)----2-(2)---(x)/-|-/14----14----|-2-2---2-2-------|
|-(0)-0----3--3-2-|-(2)--4-2-(2)---(x)/-|-/14----14----|-2-2-4-2-2-------|
|----------3--3-0-|-(0)--0-0-(0)---(x)/-|--/0-----0----|-0-0-0-0-0--0-0--|
|----------1--1---|---------------------|--------------|-----------------|


  E  E  E  E  Q  E E   Q.   E +Q   E E     H     H      E E E E Q  E E
|--------------------|------------------|-------------|-----------------|
|--------------------|------------------|-------17----|-----------------|
|---14-14-14-14------|-2----2-(2)--2-x/-|-14----14----|---2-----2-------|
|---14-14-14-14--2-2-|-2----2-(2)--2-x/-|-14----14----|---2-4---2-------|
|-0--0--0--0--0--0-0-|-0----0-(0)--0-x/-|--0-----0----|-0-0-0-0-0--0-0--|
|--------------------|------------------|-------------|-----------------|


  E  E  E  E  Q  E E   Q.   Q.   E E     H     H       E E E E Q  E E
|--------------------|----------------|-------------|------------------|
|--------------------|------5---------|-------17----|------------------|
|---14-14-14-14------|-2----2----2-x/-|-14----14----|-14-------2-------|
|---14-16-14-14--2-2-|-2----2----2-x/-|-14----14----|-14---4-2-2-------|
|-0--0--0--0--0--0-0-|-0----0----0-x/-|--0-----0----|----0-0-0-0--0-0--|
|--------------------|----------------|-------------|------------------|


  E E E E Q  E E   q  Q  H      W          Q.   Q.   Q
|----------------|------------|----------|---------------|
|----------------|------------|----------|-3----3----3---|
|-2-2---2-2--2-2-|-2----------|----------|-2----2----2---|
|-2-2-4-2-2--2-2-|-2----------|----------|-0----0----0---|
|-0-0-0-0-0--0-0-|-0----------|----------|---------------|
|----------------|------------|----------|---------------|


   E  Q.   Q  Q    Q.   Q.   Q    +E  Q.   Q  E E   +Q   Q  Q  Q
|----------------|--------------|-----------------|----------------|
|-(3)-3----3--3--|-3----3----3--|-(3)-3-----------|----------------|
|-(2)-2----2--2--|-0----0----0--|-(0)-0---------2-|-(2)--2--2--2---|
|-(0)-0----0--0--|-0----0----0--|-(0)-0----3--3-2-|-(2)--2--2--2---|
|----------------|--------------|----------3--3-0-|-(0)--0--0--0---|
|----------------|--------------|----------1--1---|----------------|


   E  E E E E E E E   +Q   Q  Q  Q    +E  E E E E E E E   +Q   Q  Q  Q
|-------------------|---------------|-------------------|----------------|
|-------------------|---------------|-------------------|----------------|
|-(2)-------------2-|-(2)--2--2--2--|-(2)-------------2-|-(2)--2--2--2---|
|-(2)-------------2-|-(2)--2--2--2--|-(2)-------------2-|-(2)--2--2--2---|
|-(0)---2---3-2-0-0-|-(0)--0--0--0--|-(0)---2---5-3-2-0-|-(0)--0--0--0---|
|-----3---3---------|---------------|-----3---3---------|----------------|


   E  E E E E E E E   +Q   Q  Q  Q    +E  E E E E E E E   +Q.   E +Q   Q
|-------------------|---------------|-------------------|------------------|
|-------------------|---------------|-----------------3-|-(3)---3-(3)--3---|
|-(2)-------------2-|-(2)--2--2--2--|-(2)-------------2-|-(2)---2-(2)--2---|
|-(2)-------------2-|-(2)--2--2--2--|-(2)-------5---6-0-|-(0)---0-(0)--0---|
|-(0)---2---3-2-0-0-|-(0)--0--0--0--|-(0)---2---3-0-4---|------------------|
|-----3---3---------|---------------|-----3---3---------|------------------|


   E  Q.   Q  Q    Q.   E +Q   Q    +E  Q.   Q  E E
|----------------|----------------|-----------------|
|-(3)-3----3--3--|-3----3-(3)--3--|-(3)-3-----------|
|-(2)-2----2--2--|-0----0-(0)--0--|-(0)-0---------2-|
|-(0)-0----0--0--|-0----0-(0)--0--|-(0)-0----3--3-2-|
|----------------|----------------|----------3--3-0-|
|----------------|----------------|----------1--1---|


   W          +H.      +E  E   +E  E E E E E E E   E E   +E  H    E
|-----------|----------------|-------------------|--------------------|
|-----------|--------------5-|-(5)---5-5-5---5-5-|-5-7b8r(7)-5----x/--|
|-/2--------|-(2)------(2)-5-|-(5)---5-5-5---5-5-|-5-7---(7)-5----x/--|
|-----------|----------------|-----7-------7-----|--------------------|
|-----------|----------------|-------------------|--------------------|
|-----------|----------------|-------------------|--------------------|


    H.       +E  E      Q.   E E Q  E   +H.      +E  +E
|-------------------|-----------------|-------------------|
|-/14-------(14)-x-|-12----x-5-5--2-|-(2)------(2)-(x)/-|
|-/14-------(14)-x-|-12----x-5-5--2-|-(2)------(2)-(x)/-|
|-------------------|-----------------|-------------------|
|-------------------|-----------------|-------------------|
|-------------------|-----------------|-------------------|


                          |--3---|  |----3-----|  |---3----|
   H.       +E   E       +E   E  E  E     +E   E  E     E  E  S  S  S     S
|--------------------|------17------------------------17----------------17-|
|-14------(14)-------|---------17-20b22r(20)-17----------17-20p17----------|
|-14------(14)-19b21-|-(19)---------------------19b21-------------19b21----|
|--------------------|-----------------------------------------------------|
|--------------------|-----------------------------------------------------|
|--------------------|-----------------------------------------------------|


                  |--------3--------|  |---------3----------|
   S  S  S     S  S  S  S     S  S  S  S     S  S  S  S     S  S  S  E
|-------------17-------------17-------------17-------------17-------17-|
|-20p17----------20p17----------20p17----------20p17----------20p17----|
|-------19b21----------19b21----------19b21----------19b21-------------|
|----------------------------------------------------------------------|
|----------------------------------------------------------------------|
|----------------------------------------------------------------------|


   |--3--|              |--3--|
   E  E  E  S  S  S  S  S  S  S  T  T  T  T  S  S  S  S
|-20p19p17-19p17----------------------------------------|
|----------------20-18-20p18p17-18p17-18p17-------------|
|-------------------------------------------19p17-19p17-|
|-------------------------------------------------------|
|-------------------------------------------------------|
|-------------------------------------------------------|


                                                                        1/
                                                                        ~~~
   S  S  S  S  S  S  S  S  S  S  S  S  S  S  S  S    Q   E  Q   E  Q    W
|-------------------------------------------------|-------------------|----|
|-------------------------------------------------|-------------------|----|
|-19p17-19p17-------------------------------------|-------------------|----|
|-------------19p17-19p17-------------------------|-/7--/7-/7--/7-/7--|-7--|
|-------------------------17p15-17p15-17p15p14h15-|-------------------|----|
|-------------------------------------------------|-------------------|----|


   |--3--|        |--3--|              |--3--|        |--3--|
   T  T  T  S  S  T  T  T  S  S  S  S  T  T  T  S  S  T  T  T
|-20p17----------20p17----------20p17----------20p17----------|
|-------20-17-20-------20-17-20-------20-20-20-------20-20-20-|
|-------------------------------------------------------------|
|-------------------------------------------------------------|
|-------------------------------------------------------------|
|-------------------------------------------------------------|


         |--3--|
   S  S  T  T  T  S  S  S  S  S  S  S  S  S  S  S  S
|-20p17----------20p17-------20p17-------20p17-------|
|-------20-20-20-------20p17-------20p17-------20p17-|
|----------------------------------------------------|
|----------------------------------------------------|
|----------------------------------------------------|
|----------------------------------------------------|


   Q.    E  +Q    Q     +E   Q   E  S  S  S  S  S  S  S  S
|-17----17-(17)--17--|-(17)-17------------------------------|
|--------------------|----------17-20p17----17-20p17----17--|
|--------------------|-------------------19----------19-----|
|--------------------|--------------------------------------|
|--------------------|--------------------------------------|
|--------------------|--------------------------------------|


   E     +E   E  E     +E   E  E     +E
|----------------------------------------|
|------------20------------20------------|
|-19b21-(19)----19b21-(19)----19b21-(19)-|
|----------------------------------------|
|----------------------------------------|
|----------------------------------------|


                                                 ~~
                                |--3--|
   E  E     +E   E  S  S  S  S  S  S  S  S  S    W           +Q   Q  H
|---------------------------------------------|-----------|---------------|
|-20------------20----------------------------|-----------|---------------|
|----19b21-(19)----17h19p17----17h19p17----17-|-----------|---------------|
|---------------------------19----------19----|-19--------|-(19)----------|
|---------------------------------------------|-----------|---------------|
|---------------------------------------------|-----------|---------------|


  E E E E Q  E E   E  E  E  E  Q  E E   Q.   E +Q   E E     W         W
|----------------|--------------------|------------------|-----------------|
|----------------|--------------------|------------------|-----------17----|
|-2-2---2-2------|---14-14-14-14------|-2----2-(2)--2-x/-|-14--------14----|
|-2-2-4-2-2------|---14-14-14-14--2-2-|-2----2-(2)--2-x/-|-14--------14----|
|-0-0-0-0-0--0-0-|-0--0--0--0--0--0-0-|-0----0-(0)--0-x/-|--0---------0----|
|----------------|--------------------|------------------|-----------------|


  E E E E Q  E E   E  E  E  E  Q  E E   Q.   Q.   E E     H     H
|----------------|--------------------|----------------|-------------|
|----------------|--------------------|------5---------|-------17----|
|---2---2-2------|---14-14-14-14------|-2----2----2-x/-|-14----14----|
|---2-4-2-2------|---14-16-14-14--2-2-|-2----2----2-x/-|-14----14----|
|-0-0-0-0-0--0-0-|-0--0--0--0--0--0-0-|-0----0----0-x/-|--0-----0----|
|----------------|--------------------|----------------|-------------|


   E E E E Q  E E   E E E E Q  E E   q  Q  H      W
|-----------------|----------------|------------|------|
|-----------------|----------------|------------|------|
|-14-------2------|-2-2---2-2--2-2-|-2----------|------|
|-14---4-2-2------|-2-2-4-2-2--2-2-|-2----------|------|
|----0-0-0-0--0-0-|-0-0-0-0-0--0-0-|-0----------|------|
|-----------------|----------------|------------|------|


   Q.          Q.          Q         +E   Q.          Q          Q
|----------------------------------|----------------------------------|
|--3-----------3-----------3-------|-(3)--3-----------3----------3----|
|--2-----------2-----------2-------|-(2)--2-----------2----------2----|
|--0-----------0-----------0-------|-(0)--0-----------0----------0----|
|----------------------------------|----------------------------------|
|----------------------------------|----------------------------------|
|
|  E     E  E  E     E  E  E     E    E   E     E  E  E      E   E  E
|----------20----------20----------|-20-----------20------------------|
|-20b22-20----20b22-20----20b22-20-|-----20b22-20----20b22r(20)-17----|
|----------------------------------|-------------------------------19-|
|----------------------------------|----------------------------------|
|----------------------------------|----------------------------------|
|----------------------------------|----------------------------------|


   Q.          Q.          Q         +E   Q.           Q    E E
|----------------------------------|----------------------------|
|--3-----------3-----------3-------|-(3)--3---------------------|
|--0-----------0-----------0-------|-(0)--0-------------------2-|
|--0-----------0-----------0-------|-(0)--0------------3----3-2-|
|----------------------------------|-------------------3----3-0-|
|----------------------------------|-------------------1----1---|
|
|  E     E  E  E     E  E  E     E    E   E   S  S  E  E  E
|----------15----------15----------|-15-------------------------|
|-15b17-15----15b17-15----15b17-15-|----------------------------|
|----------------------------------|-----17--19p17----17--------|
|----------------------------------|---------------19----19-----|
|----------------------------------|----------------------------|
|----------------------------------|----------------------------|


    Q    Q  Q  Q    +E  E E E E E E E   +Q   Q  Q  Q    +E  E E E E E E E
|-----------------|-------------------|---------------|--------------------|
|-----------------|-------------------|---------------|--------------------|
|--(2)---2--2--2--|-(2)-------------2-|-(2)--2--2--2--|-(2)-------------2--|
|--(2)---2--2--2--|-(2)-------------2-|-(2)--2--2--2--|-(2)-------------2--|
|--(0)---0--0--0--|-(0)---2---3-2-0-0-|-(0)--0--0--0--|-(0)---2---5-5-2-0--|
|-----------------|-----3---3---------|---------------|-----3---3----------|
|
|   Q    Q  H
|-----------------|-------------------|---------------|--------------------|
|-----------------|-------------------|---------------|--------------------|
|-----------------|-------------------|---------------|--------------------|
|-(19)-----------|-------------------|---------------|--------------------|
|-----------------|-------------------|---------------|--------------------|
|-----------------|-------------------|---------------|--------------------|


   Q   Q  Q  Q    +E  E E E E E E E   +Q   Q  Q  Q    +E  E E E E E E E
|---------------|-------------------|---------------|--------------------|
|---------------|-------------------|---------------|-----------------3--|
|-(2)--2--2--2--|-(2)-------------2-|-(2)--2--2--2--|-(2)-------------2--|
|-(2)--2--2--2--|-(2)-------------2-|-(2)--2--2--2--|-(2)-------5---6-0--|
|-(0)--0--0--0--|-(0)---2---3-2-0-0-|-(0)--0--0--0--|-(0)---2---3-0-4----|
|---------------|-----3---3---------|---------------|-----3---3----------|


  H    Q  E  E       +E   E  S  S  E  E  S  S  E  E
|-----------------|------12-15p12----12-15p12----15b17-|
|-----------15b17-|-(15)----------15----------15-------|
|-----------------|------------------------------------|
|-----------------|------------------------------------|
|-----------------|------------------------------------|
|-----------------|------------------------------------|


    ~~~~
   +H.       +E  E   E  E E E E Q   E
|-(15)------(15)---|---/5-5---5-5-----|
|------------------|---/5-5---5-5-----|
|------------------|-------------------|
|------------------|-------------------|
|------------------|-------------------|
|------------------|-------------------|


  W          E  Q      E  E  E  E  E
|----------|---20b22--20-19-17----------|
|----------|-------------------20-20b22-|
|----------|----------------------------|
|----------|----------------------------|
|----------|----------------------------|
|----------|----------------------------|
|
| W          W
|----------|----------------------------|
|----------|----------------------------|
|----------|----------------------------|
|----------|----------------------------|
|----------|----------------------------|
|----------|----------------------------|


   +S   S  E     +E   E  H           +Q     Q   H
|------20------------20-----------|---------------------|
|-(20)----20b22-(20)----20b22-----|-(20)---------------|
|---------------------------------|---------------------|
|---------------------------------|---------------------|
|---------------------------------|---------------------|
|---------------------------------|---------------------|
|
|   Q             Q      Q     Q     +E   E E E E E E E
|---------------------------------|---------------------|
|---------------------------------|-------------------3-|
|---2-------------2------2-----2--|--(2)--------------2-|
|---2-------------2------2-----2--|--(2)--------5---6-0-|
|---0-------------0------0-----0--|--(0)----2---3-0-4---|
|---------------------------------|-------3---3---------|


   W                 W               W                 H       Q  E  E
|-----------------|----------------|----------------|-------------------|
|-----------------|----------------|----------------|-------------------|
|-----------------|----------------|----------------|---------------14--|
|-----------------|----------------|----------------|---------------14--|
|-----------------|----------------|----------------|----------------0--|
|-----------------|----------------|----------------|-------------------|
|
|  Q.   E +Q   Q    +E  Q.   Q  Q    Q.   E +Q   Q    +E  Q.   Q  E  E
|-----------------|----------------|----------------|-------------------|
|-(3)---3-(3)--3--|-(3)-3----3--3--|-3----3-(3)--3--|-(3)-3-------------|
|-(2)---2-(2)--2--|-(2)-2----2--2--|-0----0-(0)--0--|-(0)-0----------2--|
|-(0)---0-(0)--0--|-(0)-0----0--0--|-0----0-(0)--0--|-(0)-0----3--3--2--|
|-----------------|----------------|----------------|----------3--3--0--|
|-----------------|----------------|----------------|----------1--1-----|


    E   E  E  E  q  Q
|----------------------*|----|
|----------------------*|----|
|-(14)-14-14-14-14-----*|----|
|-(14)-14-14-14-14-----*|----|
|--(0)--0--0--0--0-----*|----|
|----------------------*|----|
|
|   E   E  E  E  q  Q
|----------------------*|----|
|----------------------*|----|
|--(2)--2-----2--2-----*|----|
|--(2)--2--4--2--2-----*|----|
|--(0)--0--0--0--0-----*|----|
|----------------------*|----|


Duration Legend
---------------
W - whole; H - half; Q - quarter; E - 8th; S - 16th; T - 32nd; X - 64th; a - 
acciaccatura
+ - note tied to previous; . - note dotted; .. - note double dotted
Uncapitalized letters represent notes that are staccato (1/2 duration)
Irregular groupings are notated above the duration line
Duration letters will always appear directly above the note/fret number it 
represents the
duration for.  Duration letters with no fret number below them represent 
rests.  Multi-
bar rests are notated in the form Wxn, where n is the number of bars to rest 
for.  Low
melody durations appear below the staff

Tablature Legend
----------------
h   - hammer-on
p   - pull-off
b   - bend
pb  - pre-bend
r   - bend release (if no number after the r, then release immediately)
/  - slide into or out of (from/to "nowhere")
s   - legato slide
S   - shift slide
  - natural harmonic
[n]  - artificial harmonic
n(n) - tapped harmonic
~   - vibrato
tr  - trill
T   - tap
TP  - trem. picking
PM  - palm muting
n/  - tremolo bar dip; n = amount to dip
n  - tremolo bar down
n/  - tremolo bar up
/n  - tremolo bar inverted dip
=   - hold bend; also acts as connecting device for hammers/pulls
<>  - volume swell (louder/softer)
x   - on rhythm slash represents muted slash
o   - on rhythm slash represents single note slash

Misc Legend
-----------
|  - bar
||  - double bar
||o - repeat start
o|| - repeat end
*|  - double bar (ending)
:  - bar (freetime)
$  - Segno
&  - Coda
c
Добавлено: 25.09.2013
Другие материалы по этой песне:
  • Аккорды и текст

Страница создана 25.09.2013
http://primanota.ru/poison/love-on-the-rocks-chords.htm
Привет, Гость.
Предлагаем пройти революционный курс по гитаре.
Подарок от PrimaNota.Ru, забирай!