PrimaNota.ru - самый крупный в мире бесплатный архив песенных текстов, аккордов, табулатур и нот


Poison - Home - таба, видео

Регистрация Запомнить меня
Войти через:  Facebook Google Twitter Vk Yandex Mail.ru

Poison - Home - таба, видео

Печатать
Просмотров: 119
Уроки эстрадного вокала в Санкт-Петербурге
on hollywierd the are two versions of this song. the guitar is the same on both so here 
go.

Tuning: Eb Ab Db Gb Bb Eb

Riff 1
|----------------------------------------------|
|----------------------------------------------|
|-6/7-77-777-6/7-77-777-6/777-6/777-6/7-77-777-|
|-6/7-77-777-6/7-77-777-6/777-6/777-6/7-77-777-|
|-4/5-55-555-4/5-55-555-4/555-4/555-4/5-55-555-|
|----------------------------------------------|

Riff 2
|---------------|
|---------------|
|-7-------------|
|-5---7---5---5-|
|-5---7---5---5-|
|-----5---3---3-|

Riff 3
|---------------------------------------------------------------|
|---------------------------------------------------------------|
|-6/7-77-777-6/7-77-777-----------------------------------------|
|-6/7-77-777-6/7-77-777------------------4/5-55-555-4/5-55-555--|
|-4/5-55-555-4/5-55-555--779777977977777-4/5-55-555-4/5-55-555--|
|------------------------555555555555555-2/3-33-333-2/3-33-333--|
Riff 3 (continued)
-----------------|
-----------------|
-----------------|
-----------------|
-557555755755555-|
-333333333333333-|

Riff 4 ( bends are a full step                                  Riff 4a
|----10-----10-10-10-----10-----10-10-10------------------------|----|
|----10-----10-10-10-----10-----10-10-10------------------------|----|
|12b----12b----------12b----12b----------6/777-6/777-6/7-77-777-|-7\-|
|----------------------------------------6/777-6/777-6/7-77-777-|-7\-|
|----------------------------------------4/555-4/555-4/5-55-555-|-5\-|
|---------------------------------------------------------------|----|

Riff 5
|--------------------------|
|--------------------------|
|-7-------------12-11-9-7--|
|-5---7---5-----12-11-9-7--|
|-5---7---5-----10-9--7-5--|
|-----5---3-----10-9--7-5--|

Riff 6
|---------------------------------------------------------------|
|---------------------------------------------------------------|
|-6/7-77-777-6/7-77-777-----------------------------------------|
|-6/7-77-777-6/7-77-777------------------4/5-55-555-4/5-55-555--|
|-4/5-55-555-4/5-55-555--779777977977777-4/5-55-555-4/5-55-555--|
|------------------------555555555555555-2/3-33-333-2/3-33-333--|
Riff 6 (continued)
---------------------|
---------------------|
-----------12-11-9-7-|
-----------12-11-9-7-|
-55755575--10-9--7-5-|
-33333333--10-9--7-5-|

Order:
Riff 1 x2
Riff 2 x2
Riff 3 x2
Riff 1
Riff 2 x2
Riff 3 x2
Riff 4 x2
Riff 4a with some delay
Riff 5
Riff 3
Riff 6
Riff 4 x2
End.

hope you enjoy. if u have any requests for next song then email me at slashinroses@yahoo.com
Добавлено: 15.10.2013
Другие материалы по этой песне:
  • Аккорды и текст

Страница создана 15.10.2013
http://primanota.ru/poison/home-chords.htm
Привет, Гость.
Предлагаем пройти революционный курс по гитаре.
Подарок от PrimaNota.Ru, забирай!