PrimaNota.ru - самый крупный в мире бесплатный архив песенных текстов, аккордов, табулатур и нот


Placebo - The Bitter End (For Standard Tuning) - аккорды и текст, видео

Регистрация Запомнить меня
Войти через:  Facebook Google Twitter Vk Yandex Mail.ru

Placebo - The Bitter End (For Standard Tuning) - аккорды и текст, видео

Печатать
Просмотров: 327
The Bitter End (For Standard Tuning)
Placebo
		   The Bitter End - PLACEBO
Words and music by Brian MOLKO.

(Transcribed by GG - pasgroumpf@yahoo.fr le 16.07.07)



Transcription using a Standard Tuning EADGBA

Chords:

     -----------
  6  X X | | | o
     -----------
     | | | | o |
     -----------
     | | o o | |
     -----------
       Emb (VI)

Couplet : Guitare1 --> Emb

Guitare 2 premier couplet :

E--------------------------------------------------
B--------------------------------------------------
G---15-15-15-15-15-15-15-15-13-13-13-13-13-13-13-13
D--------------------------------------------------
A---13-13-13-13-13-13-13-13-11-11-11-11-11-11-11-11
E--------------------------------------------------

   in      our            com   fort       
-------------------------------------------------|
-------------------------------------------------|
-11-11-11-11-11-11-11-11-10-10-10-10-10-10-10-10-|
-------------------------------------------------|
--9--9--9--9--9--9--9--9--8--8--8--8--8--8--8--8-|
-------------------------------------------------|

      zone...
   /**** LET RING ***/
E-------------------------------------------------
B-------------------------------------------------
G---3---------------------------------------------
D-------------------------------------------------
A---1---------------------------------------------
E-------------------------------------------------


E--------------------------------------------------
B--------------------------------------------------
G---18-18-18-18-18-18-18-18-16-16-16-16-16-16-16-16
D--------------------------------------------------
A---16-16-16-16-16-16-16-16-14-14-14-14-14-14-14-14
E--------------------------------------------------
                         that I followed you home

-------------------------------------------------|
-------------------------------------------------|
-15-15-15-15-15-15-15-15-13-13-13-13-13-13-13-13-|
-------------------------------------------------|
-13-13-13-13-13-13-13-13-11-11-11-11-11-11-11-11-|
-------------------------------------------------|

   /**** LET RING ***/
E--------------------------------------------------
B--------------------------------------------------
G---15---------------------------------------------
D--------------------------------------------------
A---13---------------------------------------------
E--------------------------------------------------


Refrain :

Guitare 1 (PIANO)
E------11-----------------------14-----------------
B---7-----------------------9----------------------
G--------------------------------------------------
D--------------------------------------------------
A--------------------------------------------------
E--------------------------------------------------

-----16----------------------18------------------|
-11----------------------12----------------------|
-------------------------------------------------|
-------------------------------------------------|
-------------------------------------------------|
-------------------------------------------------|


Guitare 2:
E--------------------------------------------------
B--------------------------------------------------
G---18-18-18-18-18-18-18-18-16-16-16-16-16-16-16-16
D--------------------------------------------------
A---16-16-16-16-16-16-16-16-14-14-14-14-14-14-14-14
E--------------------------------------------------

-------------------------------------------------|
-------------------------------------------------|
-15-15-15-15-15-15-15-15-13-13-13-13-13-13-13-13-|
-------------------------------------------------|
-13-13-13-13-13-13-13-13-11-11-11-11-11-11-11-11-|
-------------------------------------------------|



Guitare 1 (PIANO)
E-------------------------------------------------
B---16~~~~~~~~~~~~--------------------------------
G-------------------------------------------------
D-------------------------------------------------
A-------------------------------------------------
E-------------------------------------------------

E---------------------------------------------------
B---------------------------------------------------
G---11-11-11-11-11-11-11-11-10-10-10-10-10-10-10-10-
D---------------------------------------------------
A----9--9--9--9--9--9--9--9--8--8--8--8--8--8--8--8-
E---------------------------------------------------

------------------------------------------------|
------------------------------------------------|
-8--8--8--8--8--8--8--8--6--6--6--6--6--6--6--6-|
------------------------------------------------|
-6--6--6--6--6--6--6--6--4--4--4--4--4--4--4--4-|
------------------------------------------------|
     
Добавлено: 08.09.2013
Другие материалы по этой песне:
  • Аккорды и текст

Страница создана 08.09.2013
http://primanota.ru/placebo/the-bitter-end-for-standard-tuning-chords.htm
Привет, Гость.
Предлагаем пройти революционный курс по гитаре.
Подарок от PrimaNota.Ru, забирай!