PrimaNota.ru - самый крупный в мире бесплатный архив песенных текстов, аккордов, табулатур и нот


Placebo - Pity Party Of One - бас-таба, видео

Регистрация Запомнить меня
Войти через:  Facebook Google Twitter Vk Yandex Mail.ru

Placebo - Pity Party Of One - бас-таба, видео

Печатать
Просмотров: 378
Авторы: Steve Forrest, Stefan Olsdal, Brian Molko

Song: Pity Party (of One)
Artist: PLACEBO
Album: I took it from the DVD of Loud Like Love's Deluxe Edition :)
Tuning: D A D G


Part 1:

Here's to all the hearts that we've broken
And the ones that we made come alive
All the dreams and desires left unspoken
At the places we put them to hide

Begin at: 'All the dreams and desires left unspoken'
G | --------------------------------------------------------------------- |
D | --------------------------------------------------------------------- |
A | --8------7----------repeat------------------------------------------- |
D | --------------------------------------------------------------------- |

Part 2:

I'm glad I'm not invited
To your pity party
Yes in fact I'm delighted
'Cause it's a heavy scene

'I'm glad I'm not invited to your pity party'
G | --------------------------------------------------------------------- |
D | ------17-17---------------------------------------------------------- |
A | ---------------15-------8-------------------------------------------- |
D | -16------------------------------------------------------------------ |

Part 3:

Here's to every lost soul who's anointed
And the name of a God who is not there
And every child who is left disappointed
By a parent who just couldn't care

' Here's to every lost soul who's anointed '
G | --------------------------------------------------------------------- |
D | ------17-17--------------------15-15--------------------------------- |
A | ---------------17---------------------15----------------------------- |
D | -16-----------------------16----------------------------------------- |

G | --------------------------------------------------------------------- |
D | ------17-17-------------------15-15---------------------------------- |
A | ---------------17--------------------15------------------------------ |
D | -15-----------------------16----------------------------------------- |

Except ' And every child who is left disappointed '
G | -----------------------------------14--14---------------------------- |
D | ------17-17--------------------------------15------------------------ |
A | ---------------17---------------------------------------------------- |
D | -16----------------------------16------------------------------------ |

Part 4: (same as 2)

I'm glad I'm not invited
To your pity party
Yes in fact I'm delighted
I don't want you to pity me

'I'm glad I'm not invited to your pity party'
G | --------------------------------------------------------------------- |
D | ------17-17---------------------------------------------------------- |
A | ---------------15-------8-------------------------------------------- |
D | -16------------------------------------------------------------------ |

Part 5:

Can't you see there's a world I'll bare?
Don't be scared
Can't you see there's a world I'll bare?
Don't be scared
Don't be scared
Can't you see there's a world I'll bare?
Don't be scared
Can't you see there's a world I'll bare?
Don't be scared
Don't be scared

' Can't you see there's a world I'll bare, don't be scared'
G | --------------------------------------------------------------------- |
D | --------------------------------------------------------------------- |
A | -1/5----6\3----------3/5--------------------------------------------- |
D | --------------------------------------------------------------------- |
Repeat this but playing the first slide just completely at the beginning for only one time!

Part 6:

I'm glad I'm not invited
To your pity party
Yes In fact I'm delighted
Cause I am pity free

' I'm glad I'm not invited to your pity party'
G | --------------------------------------------------------------------- |
D | --------------------------------------------------------------------- |
A | -5---5---5---5---7---7---7---7---7---1---1---1---1---3---3---3---3--- |
D | --------------------------------------------------------------------- |
Play a little bit around with that you should end on the 3rd fret of the A-string


Please don't forget to rate the tab or leave a comment there if you wish! :)
Greets, 8991placebo.
Добавлено: 08.01.2014
Другие материалы по этой песне:
  • Аккорды и текст

Страница создана 08.01.2014
http://primanota.ru/placebo/pity-party-of-one-chords.htm
Привет, Гость.
Предлагаем пройти революционный курс по гитаре.
Подарок от PrimaNota.Ru, забирай!