PrimaNota.ru - самый крупный в мире бесплатный архив песенных текстов, аккордов, табулатур и нот


Pj Harvey - Beautiful Feeling - текст песни, таба, видео

Регистрация Запомнить меня
Войти через:  Facebook Google Twitter Vk Yandex Mail.ru

Pj Harvey - Beautiful Feeling - текст песни, таба, видео

Печатать
Просмотров: 93
PJ Harvey - Beautiful Feeling

Tuning: Drop D (DADGBE)

Verse:

E|--------------|--------------|-----------------------
B|--------------|--------------|-----------------------
G|--------------|--------------|-----------------------
D|--------------|--------------|-----0-----0--0--------
A|--2--0--2--3--|--2--0--2--3--|--0--0--0-----------0--
D|--3--3--3--3--|--3--3--3--3--|--0--------------0----- x4

Chorus:

E|-----------------|-------------|--
B|-----------------|-------------|--
G|-----2--2--------|-------------|--
D|-----2-----2-----|-------------|--
A|-------------/5--|--2--3----2--|--
D|--0----------/5--|--3--3----3--|--

E|-----------------|-------------|--
B|-----------------|-------------|--
G|-----2--2--------|-------------|--
D|-----2-----2-----|-------------|--
A|-------------/5--|--2--3----/5-|--
D|--0----------/5--|--3--3----/5-|--

E|-----------------|-------------|--
B|-----------------|-------------|--
G|-----2--2--------|-------------|--
D|-----2-----2-----|-------------|--
A|-------------/5--|--2--3----2--|--
D|--0----------/5--|--3--3----3--|--

E|-----------------|-------------|--
B|-----------------|-------------|--
G|-----2--2--------|-------------|--
D|-----2-----2-----|-------------|--
A|-------------/5--|--2--3----/5-|--
D|--0----------/5--|--3--3----/5-|--

Corrections/suggestions eliasmaluco99@gmail.com
Добавлено: 12.06.2015
Другие материалы по этой песне:
  • Аккорды и текст

Страница создана 05.03.2012
http://primanota.ru/pj-harvey/beautiful-feeling-chords.htm
Привет, Гость.
Предлагаем пройти революционный курс по гитаре.
Подарок от PrimaNota.Ru, забирай!