PrimaNota.ru - самый крупный в мире бесплатный архив песенных текстов, аккордов, табулатур и нот


Pj Harvey - Fountain - текст песни, таба, видео

Регистрация Запомнить меня
Войти через:  Facebook Google Twitter Vk Yandex Mail.ru

Pj Harvey - Fountain - текст песни, таба, видео

Печатать
Просмотров: 107
Авторы музыки: PJ Harvey

-------------------------------------------------------------------------------
                             Fountain by PJ Harvey
-------------------------------------------------------------------------------

Tabbed by: Scott

A lot of bass fills in the song, but this is the main riff for the guitar.


Tuning: EADGBE

Intro/Verse:

      A5       G5      F#m     G5
e|----------------------------------------|
B|----------------------------------------|
G|----------------------------------------|
D|-9-9-9-9-9--5-5-5--4--4-4-\-5-5-5-------|
A|-9-9-9-9-9--5-5-5--4--4-4-\-5-5-5-------|
E|-7-7-7-7-7--3-3-3--2--2-2-\-3-3-3-------|

   Stand under 
   Fountain
   Cool skin
   Washed clean
   Wash him from me

   Along comes the wind
   A big bone shaker
   Blows off my clothes
   Completely naked
   What to do
   When everything's
   Left you


   Out of the blue
   It is he
   Vision to me
   Bearing leaves
   Petals green
   Covers me
   In all my shame

   Hand in hand
   He's my big man
   Stays with me
   Some forty days
   No words
   Then goes away
   I cry again


Chorus:

e|---------------------------------------------------|
B|---------------------------------------------------|
G|---------------------------------------------------|
D|-9-9-9-9-9--4-4-4-4-4--9-9-9-9-9--4-4-4-4-4/5------|
A|-9-9-9-9-9--4-4-4-4-4--9-9-9-9-9--4-4-4-4-4/5------|
E|-7-7-7-7-7--2-2-2-2-2--7-7-7-7-7--2-2-2-2-2/3------|
 
   On my hill I wait for wind
   And on my hill I wait for wind
   And on my hill I wait for wind
   And on my hill I wait for wind
   And on my hill I wait for wind
   And on my hill I wait for wind
Добавлено: 12.06.2015
Другие материалы по этой песне:
  • Аккорды и текст

Страница создана 07.03.2012
http://primanota.ru/pj-harvey/fountain-chords.htm
Привет, Гость.
Предлагаем пройти революционный курс по гитаре.
Подарок от PrimaNota.Ru, забирай!