PrimaNota.ru - самый крупный в мире бесплатный архив песенных текстов, аккордов, табулатур и нот


Pixies - No 13 Baby - бас-таба, видео

Регистрация Запомнить меня
Войти через:  Facebook Google Twitter Vk Yandex Mail.ru

Pixies - No 13 Baby - бас-таба, видео

Печатать
Просмотров: 139
Авторы музыки: Black Francis
Авторы текста: Black Francis
-----------------------------------------------------------------------------
			   Pixies - No. 13 Baby
-----------------------------------------------------------------------------

Tabbed By : Extra Blood
e-mail: Lenda@ofir.dk

Tuning: Standard

Intro:

G-|-----------------|-----------------|-----------------|-----------------|
D-|-----------------|-----------------|-----------------|-----------------|
A-|------REST-------|------REST-------|------REST-------|------REST-------|
E-|-----------------|-----------------|-----------------|-----------------|

1st Verse:

G-|-----------------|-----------------|-----------------|-----------------|
D-|-----------------|*---------------*|-----------------|-----------------|
A-|-----------------|*---------------*|------REST-------|------REST-------|
E-|-3-x-3-3-3-3-3-3-|-3-3-3-3-3-3-3-3-|-----------------|-----------------|

G-|-----------------|-----------------|-----------------|-----------------|
D-|-----------------|-----------------|*----------------|----------------*|
A-|-----------------|-----------------|*----------------|----------------*|
E-|-x-x-3-3-3-3-3-3-|-3-3-3-3-3-3-3-3-|-3-x-3-3-3-3-3-3-|-3-3-3-3-3-3-3-3-|

Pre-Chorus:

G-|-----------------|-----------------|-----------------|-----------------|
D-|-----------------|-----------------|-----------------|-----------------|
A-|-4-4-4-4-5-5-5-5-|-----------------|-4-4-4-4-5-5-5-5-|-1-x-1-1-1-1-1-1-|
E-|-----------------|-3-x-3-3-3-3-3-3-|-----------------|-----------------|

G-|-----------------|-----------------|---------|
D-|-----------------|-----------------|---------|
A-|-4-4-4-4-5-5-5-5-|-----------------|---------|
E-|-----------------|-1-1-1-1-0-0-0-0-|-3-3-3-3-|

Chorus:

G-|-----------------|-----------------|-----------------|
D-|*----------------|-----------------|-----------------|
A-|*3-----3-3-------|-----------------|-6-----6-6-------|
E-|-----------------|-3-----3-3-------|-----------------|

G-|-------|-----------------|
D-|------*|-----------------|
A-|-1--1-*|-4-4-4-4-5-5-5-5-|
E-|-------|-----------------|

2nd Verse:

G-|-----------------|-----------------|-----------------|-----------------|
D-|-----------------|*---------------*|-----------------|-----------------|
A-|-----------------|*---------------*|--------REST-----|------REST-------|
E-|-3-x-3-3-3-3-3-3-|-3-3-3-3-3-3-3-3-|-3-3-------------|-----------------|

G-|-----------------|-----------------|-----------------|-----------------|
D-|-----------------|-----------------|*----------------|----------------*|
A-|-----------------|-----------------|*----------------|----------------*|
E-|-x-x-3-3-3-3-3-3-|-3-3-3-3-3-3-3-3-|-3-x-3-3-3-3-3-3-|-3-3-3-3-3-3-3-3-|

-Pre-Chorus
-Chorus

Pre-Chorus:

G-|-----------------|-----------------|-----------------|
D-|-----------------|-----------------|-----------------|
A-|-----------------|-4-4-4-4-5-5-5-5-|-1-x-1-1-1-1-1-1-|
E-|-3-x-3-3-3-3-3-3-|-----------------|-----------------|

G-|-----------------|-----------------|---------|
D-|-----------------|-----------------|---------|
A-|-4-4-4-4-5-5-5-5-|-----------------|---------|
E-|-----------------|-1-1-1-1-0-0-0-0-|-3-3-3-3-|

Outro:

G-|-----------------|-----------------|-----------------|-------|
D-|*----------------|-----------------|-----------------|------*|
A-|*3-----3-3-------|-----------------|-6-----6-6-------|-1--1-*|
E-|-----------------|-3-----3-3-------|-----------------|-------|

=============================================================================
Добавлено: 05.05.2012
Другие материалы по этой песне:

Страница создана 05.05.2012
http://primanota.ru/pixies/no-13-baby-chords.htm
Привет, Гость.
Предлагаем пройти революционный курс по гитаре.
Подарок от PrimaNota.Ru, забирай!