PrimaNota.ru - самый крупный в мире бесплатный архив песенных текстов, аккордов, табулатур и нот


Pixies - Wave Of Mutilation Uk Surf - бас-таба, видео

Регистрация Запомнить меня
Войти через:  Facebook Google Twitter Vk Yandex Mail.ru

Pixies - Wave Of Mutilation Uk Surf - бас-таба, видео

Печатать
Просмотров: 74
Авторы музыки: Black Francis
Авторы текста: Black Francis
-------------------------------------------------------------------------------
                             WAVE OF MUTILATION (UK SURF) - PIXIES
-------------------------------------------------------------------------------
Tabbed by: whatgoesboom
Tuning: Standard

INTRO:
G|--------------------------------------------------------------------------|
D|--------------------------------------------------------------------------|
A|--------------------------------------------------------------------------|
E|--6-6-6-6--6-6-6-6--3-3-3-3--3-3-3-3--1-1-1-1--1-1-1-1--5-5-5-5--5-5-5-5--|

G|--------------------------------------------------------------------------|
D|--------------------------------------------------------------------------|
A|--------------------------------------------------------------------------|
E|--6-6-6-6--6-6-6-6--3-3-3-3--3-3-3-3--------------------------------------|

G|-----------------------------|    |---------------------------------------|
D|-----------------------------|    |---------------------------------------|
A|-----------------------------|    |---------------------------------------|
E|--1-1-1-1--5-5-5-5--6-6-6-6--| x3 |--6-6-6-6------------------------------|

VERSE:
G|--------------------------------------------------------------------------|
D|--------------------------------------------------------------------------|
A|--------------------------------------------------------------------------|
E|--1-1-1-1--1-1-1-1--5-5-5-5--5-5-5-5--6-6-6-6--6-6-6-6--3-3-3-3--3-3-3-3--|

G|--------------------------------------------------------------------------|
D|--------------------------------------------------------------------------|
A|--------------------0-0-0-3-3-0-0-3--1-1-1-1--1-1-1-1---------1-1-0-0-----|
E|--1-1-1-1--1-0-1-0-------------------------------------3-3-3-----------3--|

G|--------------------------------------------------------------------------|
D|--------------------------------------------------------------------------|
A|--------------------------------------------------------------------------|
E|--1-1-1-1--1-1-1-1--5-5-5-5--5-5-5-5--6-6-6-6--6-6-6-6--3-3-3-3--3-3-3-3--|

CHORUS:
G|-----------------------------|    |----------------------------|
D|-----------------------------|    |----------------------------|
A|-----------------------------|    |----------------------------|
E|--1-1-1-1--5-5-5-5--6-6-6-6--| x2 |--1-1-1-1--5-5-5-5--6-6-6*--| (let last 6 ring)

G|-----------------------------|
D|-----------------------------|
A|-----------------------------|
E|--1-------6-------1-------6--|

BRIDGE:
G|--------------------------------------|
D|--------------------------------------|
A|--------------------------------------|
E|--6-6-6-6--6-6-6-6--3-3-3-3--3-3-3-3--|

VERSE:
G|--------------------------------------------------------------------------|
D|--------------------------------------------------------------------------|
A|--------------------------------------------------------------------------|
E|--1-1-1-1--1-0-1-0--5-5-5-5--5-5-5-5--6-6-6-6--6-6-6-6--3-3-3-3--3-3-3-3--|

G|--------------------------------------------------------------------------|
D|--------------------------------------------------------------------------|
A|--------------------0-0-0-3-3-0-0-3--1-1-1-1-1-1-1-1---------1-1-0-0------|
E|--1-1-1-1--1-0-1-0------------------------------------3-3-3-----------3---|

G|--------------------------------------------------------------------------|
D|--------------------------------------------------------------------------|
A|--------------------------------------------------------------------------|
E|--1-1-1-1--1-1-1-1--5-5-5-5--5-5-5-5--6-6-6-6--6-6-6-6--3-3-3-3--3-3-3-3--|

CHORUS:
G|-----------------------------|    |----------------------------|
D|-----------------------------|    |----------------------------|
A|-----------------------------|    |----------------------------|
E|--1-1-1-1--5-5-5-5--6-6-6-6--| x2 |--1-1-1-1--5-5-5-5--6-6-6*--| (let last 6 ring)

G|----------------------------------------------------------------------|
D|----------------------------------------------------------------------|
A|-------------------0h1-1-1-0h1-1-1------------------------------------|
E|--0h1-1-1-0h1-1-1-------------------1-1-1-1--1-1-1-1--6-6-6-6--6-6/8--|

CHORUS:
G|-----------------------------|    |----------------------------|
D|-----------------------------|    |----------------------------|
A|-----------------------------|    |----------------------------|
E|--1-1-1-1--5-5-5-5--6-6-6-6--| x2 |--1-1-1-1--5-5-5-5--6-6-6*--| (let last 6 ring)

G|-----------------------------|
D|-----------------------------|
A|-----------------------------|
E|--1-------6-------1-------6--|
Добавлено: 03.06.2016
Другие материалы по этой песне:
  • Аккорды и текст

Страница создана 03.06.2016
http://primanota.ru/pixies/wave-of-mutilation-uk-surf-chords.htm
Привет, Гость.
Предлагаем пройти революционный курс по гитаре.
Подарок от PrimaNota.Ru, забирай!