PrimaNota.ru - самый крупный в мире бесплатный архив песенных текстов, аккордов, табулатур и нот


Pixies - Head On - аккорды и текст, таба, видео

Регистрация Запомнить меня
Войти через:  Facebook Google Twitter Vk Yandex Mail.ru

Pixies - Head On - аккорды и текст, таба, видео

Печатать
Просмотров: 176
Авторы: William Reid, Jim Reid

Head On
Pixies


'Head On'
(by the Jesus and Mary Chain)
as performed by the Pixies
from the album 'Trompe Le Monde'
Transcribed by Mark Schnitzius (schnitzi@east.isx.com)


   C
As ..

I ..

I ..

A ..

        F            G
And ..
        C                  F
I ..
                                 G
And ..

C
Makes ..

Makes ...
F                  G
Makes ..

      C
And ..
  (F)               (G)     C      F   G
I ..

C
As ..

I ..

And ..

Is ..

        F                  G
And ..
    C                  F
And ..
                                  G
And ..

C
Makes ..

Makes ..
F                  G
Makes ..
        C
And ..
      F               G      C
Where ..
      F               G  
I ..

SOLO:

--------------------------------------------------------
-----------------------5--8-----------------------------
-----5---5----5----5------------5---7-7-----------------
-5/7---7----7----7---7------5/7---7-----7-5-------------
--------------------------------------------------------
--------------------------------------------------------

--------------------------------------------------------
-----------------------5--8-----------------------------
-----5---5----5----5--------7/9-7-5--7/9-7-5------------
-5/7---7----7----7---7----------------------------------
--------------------------------------------------------
--------------------------------------------------------

    C
I'm ..
      F               G
Where ..
C
Makes ..
F                        G              C
Makes ..


Добавлено: 19.02.2014
Другие материалы по этой песне:
  • Аккорды и текст

Страница создана 15.03.2012
http://primanota.ru/pixies/head-on-chords.htm
Привет, Гость.
Предлагаем пройти революционный курс по гитаре.
Подарок от PrimaNota.Ru, забирай!