PrimaNota.ru - самый крупный в мире бесплатный архив песенных текстов, аккордов, табулатур и нот


Pixies - Down to The Well - текст песни, таба, видео

Регистрация Запомнить меня
Войти через:  Facebook Google Twitter Vk Yandex Mail.ru

Pixies - Down to The Well - текст песни, таба, видео

Печатать
Просмотров: 117
Авторы текста: Black Francis
The Tab Is In Two Parts Rhythm- Black Francis And Lead - Joey Santiago

-----------------------------------------------------------------------------
                            Down To The Well By The Pixies

Tabbed By pixie99


Tuning:Standard

Black Francis- Rhythm

At 00:12 Until 00:30 Press lightly On Strings Listen To Song For Pattern

e|--------------------------|
B|--------------------------|
G|--------------------------|
D|-4-4-4--4-4-4--4-4--4-4-4-|
A|-4-4-4--4-4-4--4-4--4-4-4-|
E|-2-2-2--2-2-2--2-2--2-2-2-| Just Carry On With This Under The Lead Guitar Until 00:30 Then

e|---------------------------------------------------------------------------|
B|---------------------------------------------------------------------------|
G|----------------------------------4-4-4-4---------4-4-4-4-7-7-7-7----------|
D|-5-5-5-5-5-5-5-5------------------4-4-4-4-7-7-7-7-4-4-4-4-7-7-7-7----------|
A|-5-5-5-5-5-5-5-5--2-2-2-2-2-2-2-2-2-2-2-2-7-7-7-7-2-2-2-2-5-5-5-5----------|
E|-3-3-3-3-3-3-3-3--0-0-0-0-0-0-0-0---------5-5-5-5--------------------------|

Now Carry On With The First Bit Until 00:49 Then

e|---------------------------------------------------------------------------|
B|---------------------------------------------------------------------------|
G|----------------------------------4-4-4-4---------4-4-4-4-4-4-4-4----------|
D|-5-5-5-5-5-5-5-5------------------4-4-4-4-7-7-7-7-4-4-4-4-4-4-4-4----------|
A|-5-5-5-5-5-5-5-5--2-2-2-2-2-2-2-2-2-2-2-2-7-7-7-7-2-2-2-2-2-2-2-2----------|
E|-3-3-3-3-3-3-3-3--0-0-0-0-0-0-0-0---------5-5-5-5--------------------------|


e|----------------------------------------------------------------------------|
B|----------------------------------------------------------------------------|
G|--------------4-4-4-4---------4-4-4-4-7-7-7-7-4-4-4-4---------4-4-4-4-------|
D|--------------4-4-4-4-7-7-7-7-4-4-4-4-7-7-7-7-4-4-4-4-7-7-7-7-4-4-4-4-------|
A|-2---------2--2-2-2-2-7-7-7-7-2-2-2-2-5-5-5-5-2-2-2-2-7-7-7-7-2-2-2-2-------|
E|-0---------0----------5-5-5-5-------------------------5-5-5-5---------------|

e|----------------------------------------------------------------------|
B|----------------------------------------------------------------------|
G|-7-7-7-7--------------------------------------------------------------|
D|-7-7-7-7--------------------------------------------------------------|
A|-5-5-5-5--------------------------------------------------------------|
E|----------v Then After This At 1:18 Play The Top Bit Again Until 1:27-| Then
Play....

e|---------------------------------|
B|---------------------------------|
G|---------------------------------|
D|-5-5-5-5-5-5-5-5-----------------|
A|-5-5-5-5-5-5-5-5-2-2-2-2-2-2-2-2-|
E|-3-3-3-3-3-3-3-3-0-0-0-0-0-0-0-0-|

e|---------------------------------|
B|---------------------------------|
G|-4-4-4-4---------4-4-4-4-7-7-7-7-|
D|-4-4-4-4-7-7-7-7-4-4-4-4-7-7-7-7-|
A|-2-2-2-2-7-7-7-7-2-2-2-2-5-5-5-5-|
|---------5-5-5-5------------------| Do This Twice Until 1:41 Then You Do The
Very First Bit Until 1:51 then...

e|---------------------------------|
B|---------------------------------|
G|-----------4---------4-----------|
D|-5---------4----7----4----2------|
A|-5-----2---2-x4-7----2-x7-0-x3---|
E|-3-x8--0-x8-----5-x4-------------|


e|---------------------------------------------------------------------------|
B|---------------------------------------------------------------------------|
G|-4---------4----7----------------------4----------4------------------------|
D|-4----7----4----7----------------------4-----4----4------------------------|
A|-2-x4-7-x4-2-x4-5-x4-------------------2-x4--4----2-x7-2-------------------|
E|------5---------------All This x2-Then-------5-x4------0-------------------|

Joey Santiago- Lead
At 00:02 Play

e|---------------------------------------------------------------------------|
B|----------------------3-2--------------------3-2---------------------------|
G|-------------------------------------------------2 Wiggle Around-----------|
D|-4-4-4-2-2-2-2-4-4-4------4-4-4-2-2-2-2-4-4-4----0-------------------------|
A|---------------------------------------------------------------------------|
E|---------------------------------------------------------------------------|

The Stop Then At 00:20 Play

e|-----------------------------------------------------|
B|-3-2---------------------3-2--------------------3-2--|
G|-----------------------------------------------------|
D|-----4-4-4-2-2-2-2-4-4-4-----4-4-4-2-2-2-2-4-4-4-----|
A|-----------------------------------------------------|
E|-----------------------------------------------------|Now Do The Rhythm Bit
At 00:30 After That Play

e|---------------------------------------------------------------|
B|---------------------3-2---------------------------------------|
G|---------------------------------------------------------------|
D|-4-4-4-2-2-2-2-4-4-4-------------------------------------------|
A|---------------------------------------------------------------|
E|------------------------x2 Then Repeat The Rhythm from 00:49---|

Then At 1:18 Play The Same Lead Bit Above 3x Until 1:31 Then

e|---------------------------------------------------------------------------|
B|---------------------------------------------------------------------------|
G|-4-4-4-4-4-4 Go Up And Down Fast Non Stop Bending Now And Again Until 1:41-|
D|---------------------------------------------------------------------------|
A|---------------------------------------------------------------------------|
E|---------------------------------------------------------------------------|

Repeat Lead Main Riff 2x Until 1:51 Then Do the Correct Rhythm Bit Until 2:05
e|----------------------------------------------------------|
B|-9-10-11--------------------------------------------------|
G|--------9-10-11--------4-4-4-4-Fast Bit Again Until-2:17--|
D|---------------9-10-11------------------------------------|
A|----------------------------------------------------------|
E|----------------------------------------------------------|


e|-7-10-12-10-7-0------------------------------------------------------------|
B|---------------7 Bend Up Then Down To End The Song.------------------------|
G|---------------------------------------------------------------------------|
D|---------------------------------------------------------------------------|
A|---------------------------------------------------------------------------|
E|---------------------------------------------------------------------------|

Most Of This Song Is 100% It Sounds Better When You Play Along With The Song If Anybody 
Any Correction Or Pixies Tabs They Want Me To Do Just Leave A Comment And I Will Do It. Thanks

pixie99
Добавлено: 27.06.2013
Другие материалы по этой песне:
  • Аккорды и текст

Страница создана 30.05.2012
http://primanota.ru/pixies/down-to-the-well-chords.htm
Привет, Гость.
Предлагаем пройти революционный курс по гитаре.
Подарок от PrimaNota.Ru, забирай!