PrimaNota.ru - самый крупный в мире бесплатный архив песенных текстов, аккордов, табулатур и нот


Pink Guy - Erectyle Dysfunction - таба, видео

Регистрация Запомнить меня
Войти через:  Facebook Google Twitter Vk Yandex Mail.ru

Pink Guy - Erectyle Dysfunction - таба, видео

Печатать
Просмотров: 131
-------------------------------------------------------------------------------
                       ERECTYLE DYSFUNCTION - Pink Guy
-------------------------------------------------------------------------------
Tabbed by: Seismatters
Tuning: Standard E A D G B E

Intro Riff
e|-3-2-1------------------1-6------------------------------------------------|
B|---------1-4--3-1-----3----------------------------------------------------|
G|------------------3--------------------------------------------------------|
D|---------------------------------------------------------------------------|
A|---------------------------------------------------------------------------|
E|---------------------------------------------------------------------------|

Main Riff (repeat until end)
e|-3---2------3---2------3---2------3---2------------------------------------|
B|---1---4--4---1---4--4---1---4--4---1---4--4-------------------------------|
G|---------------------------------------------------------------------------|
D|---------------------------------------------------------------------------|
A|---------------------------------------------------------------------------|
E|---------------------------------------------------------------------------|

Lyrics:

My dick don't stand like a fat kid in PE
The only time it's active's when I'm in the bathroom peeing
I'm like a Nazi with a broken arm
I couldn't get it up even if my life depended on it
You can find me in the bathroom trying
Tugging on my balls in the stall straight crying
I think I'm dying cuz I'm limper than bizkit
At Christmas a large hard cock is on my wish list
My dick is so small these haters on my balls
Couldn't elevate to the next level so fuck y'all
Shiiiit, I limp around like polio
Like okey dokey yo my dick ain't lying like Pinocchio
Sorry Gepetto how could anybody pull strings
This puppet ain't even made of WOOD (ha-haaa)
Yeah I guess I'm trying to say it like this
If you want respect then hop off my dick
Ironically i go hard though
Добавлено: 10.11.2015
Вам также может быть интересно:
Другие материалы по этой песне:
  • Аккорды и текст

Страница создана 10.11.2015
http://primanota.ru/pink-guy/erectyle-dysfunction-chords.htm
Привет, Гость.
Предлагаем пройти революционный курс по гитаре.
Подарок от PrimaNota.Ru, забирай!