PrimaNota.ru - самый крупный в мире бесплатный архив песенных текстов, аккордов, табулатур и нот


Pink Guy - Pink Guy Cooks Takoyaki And Raps - бас-таба, видео

Регистрация Запомнить меня
Войти через:  Facebook Google Twitter Vk Yandex Mail.ru

Pink Guy - Pink Guy Cooks Takoyaki And Raps - бас-таба, видео

Печатать
Просмотров: 130
-------------------------------------------------------------------------------
                             PINK GUY COOKS TAKOYAKI AND RAPS - Pink Guy
-------------------------------------------------------------------------------
Tabbed by: 
E-mail: 

Tuning:

G|--------------|-----------------------X3---------------------|
D|--------------|----------------------------------------------|
A|15------------|---------------15---------------------15------|
E|----8-8-------|--8/11--13---------8-8----8/11--13--------8-8-|

G|---------------------------------------------------------------------------|
D|---------------------------------------------------------------------------|
A|----------11-13-15-13-11---------------------------------------------------|
E|--8/11-13----------------13------------------------------------------------|




| /  slide up
| \  slide down
| h  hammer-on
| p  pull-off
| ~  vibrato
| +  harmonic
| x  Mute note
===============================================================================
Добавлено: 28.05.2016
Другие материалы по этой песне:
  • Аккорды и текст

Страница создана 28.05.2016
http://primanota.ru/pink-guy/pink-guy-cooks-takoyaki-and-raps-chords.htm
Привет, Гость.
Предлагаем пройти революционный курс по гитаре.
Подарок от PrimaNota.Ru, забирай!