PrimaNota.ru - самый крупный в мире бесплатный архив песенных текстов, аккордов, табулатур и нот


Phil Collins - Tearing And Breaking - текст песни, бас-таба, видео

Регистрация Запомнить меня
Войти через:  Facebook Google Twitter Vk Yandex Mail.ru

Phil Collins - Tearing And Breaking - текст песни, бас-таба, видео

Печатать
Просмотров: 52
-------------------------------------------------------------------------------
                            Phil Collins - Tearing and Breaking
-------------------------------------------------------------------------------

Tuning: standard 4 strings Bass Guitar

Tabbed By : drone89 

-------------------------------------------------------------------------------


Intro : No Bass
[00:00]

Chorus :
[00:29]

G|---------------------------------------|
D|---------------------------------------|
A|-5-3------5-3---8~~--5-3-7-----5-3-----|
E|-----1-6------6------------8-6-----6---|

Verse :
[00:59]

G|---------------------------------------|
D|------------------------------------5--|
A|-5-3-----5-3---8~~---5-3-6-----5-3-----|
E|-----1-6-----6-------------8~----------|

Chorus :
[01:27]

G|------------------------------------------|
D|------------------------------------------|
A|---5-3--------5-3---8~~--5-3-6-----5-3----|
E|-3-----1-6~-------6------------8~------6~-|

Verse :
[01:55]

G|-------------------------------------------|
D|-------------------------------------------|
A|---5-3--------5-3---8~~--5-3-6-----5-3-----|
E|-------1-6~-------6------------8~------3~--|

Chorus :
[02:24]

G|-------------------------------------------|
D|-------------------------------------------|
A|---5-3--------5-3---8~~--5-3-6-----5-3-----|
E|-3-----1-6~-------6------------8~------6~--|

Solo :
[02:53]

G|-------------------------------------------|
D|-------------------------------------------|
A|--6-4---2---6-4---9---6-4-9-----6-4--------|
E|------2---------7-----------7-------7------|

Verse :
[03:22]

G|-------------------------------------------|
D|-------------------------------------------|
A|--6-4---2---6-4---9---6-4-9-----6-4--------|
E|------2---------7-----------7-------4~-----|

Chorus :
[03:50]

G|-------------------------------------------|
D|-------------------------------------------|
A|---6-4---2----6-4---9~~--6-4-9-----6-4-----|
E|-4-----2----------7------------7~~-----7---|

G|-------------------------------------------|
D|-------------------------------------------|
A|---6-4---2----6-4---9~~--6-4-9-----6-4-----|
E|-4-----2----------7------------7~~-----7---|

| /  slide up
| \  slide down
| h  hammer-on
| p  pull-off
| ~  vibrato
| +  harmonic
| x  Mute note
===============================================================================
Добавлено: 24.04.2016
Другие материалы по этой песне:
  • Аккорды и текст

Страница создана 24.02.2012
http://primanota.ru/phil-collins/tearing-and-breaking-chords.htm
Привет, Гость.
Предлагаем пройти революционный курс по гитаре.
Подарок от PrimaNota.Ru, забирай!