PrimaNota.ru - самый крупный в мире бесплатный архив песенных текстов, аккордов, табулатур и нот


Peter Griffen - Iraq Lobster - таба, видео

Регистрация Запомнить меня
Войти через:  Facebook Google Twitter Vk Yandex Mail.ru

Peter Griffen - Iraq Lobster - таба, видео

Печатать
Просмотров: 6812
Both guitars are tuned standart E
q~95

Intro/Verse:

    Cm      Cm*               G7       6x     
e|------3-------3---------------------|
B|o-----4-------4-------------6-6----o|
G|------5-------3-------------4-4-----|
D|------5-------5---6-3-6-5---5-5-0*--|
A|o-3-------6------------------------o|
E|------------------------------------|
    e   e   e   e   s s s e   s s s

*Sixth time substitute open D string with G7 chord

Chorus:

Guitar 1
    Cm      Cm^         Cm      Cm^      D#5             Cm                   2x
e|------3-------3-------3-------3-----|------------------3---3-3-----3-3-3---|
B|o-----4-------4-------4-------4-----|--4---4-----------4---4-4-4-4-4-4-4--o|
G|------5-------5-------5-------5-----|--3---3-----------5---5-5-5-5-5-5-5---|
D|--5---5---4---4---5---5---4---4-----|--1---1---4-1-4-5-5-------5-5---------|
A|o-----3-------3-------3-------3-----|------------------3-------3-3--------o|
E|------------------------------------|--------------------------------------|
    e   e   e   e   e   e   e   e        e   e   s s s s e   s s s s s s s
Guitar 2 (Optional)
    G       F#      G       F#           D#      F#    G                      2x
e|------------------------------------|--------------------------------------|
B|o-----------------------------------|-------------------------------------o|
G|--12------11------12------11--------|----------11--1112--------------------|
D|------------------------------------|--13--13----13------------------------|
A|o-10------9-------10------9---------|----------9---9-10-------------------o|
E|------------------------------------|--11--11------------------------------|
    q       q       q       q            e   e   s s s s+h

h - half note
q - quarter note
e - eighth note
s - sixteenth note

Chords used:
Cm
3|-|-|o|-|-|
4|-|-|-|o|-|
5|-|-|-|-|o|
5|-|-|-|-|o|
3|-|-|o|-|-|
x|-|-|-|-|-|

Cm*
3|-|o|-|-|-|
4|-|-|o|-|-|
3|-|o|-|-|-|
5|-|-|-|o|-|
6|-|-|-|-|o|
x|-|-|-|-|-|
  2
G7
x|-|-|-|-|-|
6|-|-|-|-|o|
4|-|-|o|-|-|
5|-|-|-|o|-|
x|-|-|-|-|-|
x|-|-|-|-|-|
  2
Cm^
3|-|-|o|-|-|
4|-|-|-|o|-|
5|-|-|-|-|o|
4|-|-|-|o|-|
3|-|-|o|-|-|
x|-|-|-|-|-|

D#5
x|-|-|-|-|-|
4|-|-|-|o|-|
3|-|-|o|-|-|
1|o|-|-|-|-|
x|-|-|-|-|-|
x|-|-|-|-|-|

G
 x|-|-|-|-|-|
 x|-|-|-|-|-|
12|-|-|-|o|-|
 x|-|-|-|-|-|
10|-|o|-|-|-|
 x|-|-|-|-|-|
   9
F#
 x|-|-|-|-|-|
 x|-|-|-|-|-|
11|-|-|o|-|-|
 x|-|-|-|-|-|
 9|o|-|-|-|-|
 x|-|-|-|-|-|
   9
D#
 x|-|-|-|-|-|
 x|-|-|-|-|-|
 x|-|-|-|-|-|
13|-|-|-|-|o|
 x|-|-|-|-|-|
11|-|-|o|-|-|
   9
Добавлено: 01.07.2012
Другие материалы по этой песне:

Страница создана 23.02.2012
http://primanota.ru/peter-griffen/iraq-lobster-chords.htm
Привет, Гость.
Предлагаем пройти революционный курс по гитаре.
Подарок от PrimaNota.Ru, забирай!