PrimaNota.ru - самый крупный в мире бесплатный архив песенных текстов, аккордов, табулатур и нот


Periphery - 22 Faces - таба, видео

Регистрация Запомнить меня
Войти через:  Facebook Google Twitter Vk Yandex Mail.ru

Periphery - 22 Faces - таба, видео

Печатать
Просмотров: 255
Periphery - 22 Faces
Tabbed by Lorcan Ward
Guitar Solo 2:40

Check out my cover video:
https://www.youtube.com/watch?v=3OajJ_Jthf4

Standard Tuning

|----------------------------------------------------------------------|
|--------------------9h10-10/12--(12)/14-------------------------------|
|--------------9-11-----------------------14~~~~~~~~~------------------|
|-----------11---------------------------------------------------------|
|------9-12------------------------------------------------------------|
|--12------------------------------------------------------------------|

|--12p9---------------------------------------------------------------|
|-------10p9--------------------------------10h14---------------------|
|-------------11---------------------11h13---------11b13r11b13r11-----|
|----------------11---------------------------------------------------|
|-------------------12p9---9h11h12------------------------------------|
|------------------------9--------------------------------------------|

|-------------------------------------12/14----------------------------|
|------------10h12----------14--(14)-----------------------------------|
|--(11)/13--(13)-----14/16-(16)--16----------16b18r16b18r16b18---------|
|----------------------------------------------------------------------|
|----------------------------------------------------------------------|
|----------------------------------------------------------------------|

|----------------------------------------------------4h5h7---------------|
|------------------------------------------------------------------7/9~~-|
|--------------6-9--9/11--9\6~~---------6\2~~---------------6~~~---------|
|----------6-7------------------7-------------4--------------------------|
|------4-7------------------------9-------------5------------------------|
|--4-5-------------------------------------------------------------------|

|--14p9----------------------------17p14----------------20b21~~~r20~~--|
|-------10p9-----t21p12p10p9-------------15p14-------------------------|
|------------11---------------11---------------16p14-------------------|
|----------------------------------------------------------------------|
|----------------------------------------------------------------------|
|----------------------------------------------------------------------|


Eb Tuning

|----------------------------------------------------------------------|
|--------------------10h11-11/13--(13)/15------------------------------|
|--------------10-12-----------------------15~~~~~~~~~-----------------|
|-----------12---------------------------------------------------------|
|-----10-13------------------------------------------------------------|
|--13------------------------------------------------------------------|

|--13p10---------------------------------------------------------------|
|--------11p10---------------------------------11h15-------------------|
|--------------12------------------------12h14--------12b14r12b14r12---|
|-----------------12---------------------------------------------------|
|--------------------13p10-----10h12h13--------------------------------|
|--------------------------10------------------------------------------|

|-------------------------------------13/15----------------------------|
|------------11h13----------15--(15)-----------------------------------|
|--(12)/14--(14)-----15/17-(17)--17----------17b19r17b19r17b19---------|
|----------------------------------------------------------------------|
|----------------------------------------------------------------------|
|----------------------------------------------------------------------|

|-------------------------------------------------------5h6h8---------------|
|--------------------------------------------------------------------8/10~~-|
|--------------7-10--10/12--10\7~~---------7\3~~---------------7~~~---------|
|----------7-8----------------------8-------------5-------------------------|
|------5-8----------------------------10------------6-----------------------|
|--5-6----------------------------------------------------------------------|

|--15p10----------------------------18p15----------------21b22~~~r21~~-|
|--------11p10-----t22p13p11p10-----------16p15------------------------|
|--------------12---------------12--------------17p15------------------|
|----------------------------------------------------------------------|
|----------------------------------------------------------------------|
|----------------------------------------------------------------------|

Drop C Tuning

|----------------------------------------------------------------------|
|--------------------11h12-12/14--(14)/16------------------------------|
|--------------11-13-----------------------16~~~~~~~~~-----------------|
|---------9-13---------------------------------------------------------|
|---9-11---------------------------------------------------------------|
|----------------------------------------------------------------------|

|--14p11---------------------------------------------------------------|
|--------12p11---------------------------------12h16-------------------|
|--------------13------------------------13h15--------13b15r13b15r13---|
|-----------------13---------------------------------------------------|
|--------------------14p11-----11h13h14--------------------------------|
|--------------------------13------------------------------------------|

|-------------------------------------14/16----------------------------|
|------------12h14----------17--(17)-----------------------------------|
|--(13)/15--(15)-----16/18-(18)--18----------18b20r18b20r18b20---------|
|----------------------------------------------------------------------|
|----------------------------------------------------------------------|
|----------------------------------------------------------------------|

|-------------------------------------------------------6h7h9---------------|
|--------------------------------------------------------------------9/11~~-|
|--------------8-11--11/13--11\8~~---------8\4~~---------------8~~~---------|
|----------8-9----------------------9-------------6-------------------------|
|------6-9----------------------------11------------7-----------------------|
|--6-7----------------------------------------------------------------------|

|--16p11----------------------------19p16----------------22b23~~~r22~~-|
|--------12p11-----t23p14p12p11-----------17p16------------------------|
|--------------13---------------13--------------18p16------------------|
|----------------------------------------------------------------------|
|----------------------------------------------------------------------|
|----------------------------------------------------------------------|


Добавлено: 29.04.2015
Вам также может быть интересно:
Другие материалы по этой песне:

Страница создана 29.04.2015
http://primanota.ru/periphery/22-faces-chords.htm
Привет, Гость.
Предлагаем пройти революционный курс по гитаре.
Подарок от PrimaNota.Ru, забирай!