PrimaNota.ru - самый крупный в мире бесплатный архив песенных текстов, аккордов, табулатур и нот


Pendulum - Visions - таба, видео

Регистрация Запомнить меня
Войти через:  Facebook Google Twitter Vk Yandex Mail.ru

Pendulum - Visions - таба, видео

Печатать
Просмотров: 65
Уроки эстрадного вокала в Санкт-Петербурге
-------------------------------------------------------------------------------
                             Visions - Pendulum
-------------------------------------------------------------------------------
only a small part of the song which starts at around 1:22 in the song, but i couldn't find a tab anywhere so
i worked it out. let me of any suggestions

Tuning: standard

e|---------------------------------------------------------------------------|
B|--------14-------14--------------------------------------------------------|
G|--13-14----14-13----13-11-------11-----------------------------------------|
D|--------------------------14-11--------------------------------------------|
A|---------------------------------------------------------------------------|
E|---------------------------------------------------------------------------|

e|---------------------------------------------------------------------------|
B|--------14-------14--------------------------------------------------------|
G|--13-14----14-13----13-11--------------------------------------------------|
D|---------------------------------------------------------------------------|
A|---------------------------------------------------------------------------|
E|---------------------------------------------------------------------------|

e|---------------------------------------------------------------------------|
B|--------14-------14--------------------------------------------------------|
G|--13-14----14-13----13-11-------11--13-14-13-11-------11-------------------|
D|--------------------------14-11-----------------14-11----------------------|
A|---------------------------------------------------------------------------|
E|---------------------------------------------------------------------------|


************************************

| /   slide up
| \   slide down
| h   hammer-on
| p   pull-off
| ~   vibrato
| +   harmonic
| x   Mute note
| b   Bend
| pb  Pre-bend
| br  Bend release
| pbr Pre-bend release
| brb Bend release bend

************************************
Добавлено: 31.05.2016
Другие материалы по этой песне:
  • Аккорды и текст

Страница создана 31.05.2016
http://primanota.ru/pendulum/visions-chords.htm
Привет, Гость.
Предлагаем пройти революционный курс по гитаре.
Подарок от PrimaNota.Ru, забирай!