PrimaNota.ru - самый крупный в мире бесплатный архив песенных текстов, аккордов, табулатур и нот


Pendulum - Voodoo People - текст песни, таба, бас-таба, видео

Регистрация Запомнить меня
Войти через:  Facebook Google Twitter Vk Yandex Mail.ru

Pendulum - Voodoo People - текст песни, таба, бас-таба, видео

Печатать
Просмотров: 333
TUNING: STANDARD

INTRO:

e|----------------------------|
B|----------------------------|
G|----------------------------|
D|4/6-6--4/6-6--4/6-6--4/6-6-6|
A|4/6-6--4/6-6--4/6-6--4/6-4-6|
E|2/4-4--2/4-4--2/4-4--2/4-4-4|

e|----------------------------|
B|----------------------------|
G|----------------------------|
D|4/6-6--4/6-6--4/6-6--4/6-6-7|
A|4/6-6--4/6-6--4/6-6--4/6-4-7|
E|2/4-4--2/4-4--2/4-4--2/4-4-5|

TROUGH THE SONG:

e|---------------------------------------------------------------|
B|---------------------------------------------------------------|
G|---------------------------------------------------------------|
D|6-6-6-6-6-6-6-6-7-7-7-7-7-7-7-7-9-9-9-9-9-9-9-9-4-4-4-4-4-4-4-4|
A|6-6-6-6-6-6-6-6-7-7-7-7-7-7-7-7-9-9-9-9-9-9-9-9-4-4-4-4-4-4-4-4|
E|4-4-4-4-4-4-4-4-5-5-5-5-5-5-5-5-7-7-7-7-7-7-7-7-4-4-4-4-4-4-4-4|


e|-----------------------------------|
B|-----------------------------------|
G|6-4--6-4--6-4--6-4--6-4--6B-6B-6-4-|
D|----5----5----5----5----5---------5|
A|-----------------------------------|
E|-----------------------------------|

Добавлено: 30.12.2013
Другие материалы по этой песне:

Страница создана 29.03.2012
http://primanota.ru/pendulum/voodoo-people-chords.htm
Привет, Гость.
Предлагаем пройти революционный курс по гитаре.
Подарок от PrimaNota.Ru, забирай!