PrimaNota.ru - самый крупный в мире бесплатный архив песенных текстов, аккордов, табулатур и нот


Pendulum - Propane Nightmare - таба, видео

Регистрация Запомнить меня
Войти через:  Facebook Google Twitter Vk Yandex Mail.ru

Pendulum - Propane Nightmare - таба, видео

Печатать
Просмотров: 330
-------------------------------------------------------------------------------
                             Propane Nightmares - Pendulum
-------------------------------------------------------------------------------
Tabbed by: Phizzo
E-mail: phizzie@hotmail.de

Notes: The song is not quite finished. I'll update it when I have time.

Please click this link, if you want to support me: http://j.gs/1TC6 ! Only 5s of your time
-------------------------------------------------------------------------------

Tuning: Standard

Intro:
======

e|-3-----------5------6------3------6---------------------------------------------|
B|-3-----------7------8------3------8---------------------------------------------|
G|-3-----------7------8------3------8---------------------------------------------|
D|-5-----------7------8------3------8---------------------------------------------| x2
A|-5-----------5------6------1------6---------------------------------------------|
E|-3------------------------------------------------------------------------------|

Part 1 (1 strum each):
======

      Some...me down..down..can't..coming for 
e|-3-----------5------6------3------5---------------------------------------------|
B|-3-----------7------8------3------7---------------------------------------------|
G|-3-----------7------8------3------7---------------------------------------------|
D|-5-----------7------8------3------7---------------------------------------------|
A|-5-----------5------6------1------5---------------------------------------------|
E|-3------------------------------------------------------------------------------|

   You...    bride...cries..wonder..gotten ourselves into
e|-3-----------5------6------3------5---------------------------------------------|
B|-3-----------7------8------3------7---------------------------------------------|
G|-3-----------7------8------3------7---------------------------------------------|
D|-5-----------7------8------3------7---------------------------------------------|
A|-5-----------5------6------1------5---------------------------------------------|
E|-3------------------------------------------------------------------------------|

Part 2 (1/8 notes strumming):
======

     In the trail.. know... free.. .in the end...one
e|---------------------------------------------------------------------------|
B|---------------------------------------------------------------------------|
G|-8----------------7---------------8-------------7------7-------------------|
D|-8--------8-------7-------5-------8-------8-----7------7-------------------|
A|-6--------8-------5-------5-------6-------8-----5------5-------------------|
E|----------6---------------3---------------6--------------------------------|

     In the trail.. burn... bury .. .set ...signs.sun   
e|---------------------------------------------------------------------------|
B|---------------------------------------------------------------------------|
G|-8----------------7---------------8-------------7------7-------------------|
D|-8--------8-------7-------5-------8-------8-----7------7-------------------|
A|-6--------8-------5-------5-------6-------8-----5------5-------------------|
E|----------6---------------3---------------6--------------------------------|


Please click this link, if you want to support me: http://j.gs/1TC6 ! Only 5s of your time

************************************

| /   slide up
| \   slide down
| h   hammer-on
| p   pull-off
| ~   vibrato
| +   harmonic
| x   Mute note
| b   Bend
| pb  Pre-bend
| br  Bend release
| pbr Pre-bend release
| brb Bend release bend

************************************

Please click this link, if you want to support me: http://j.gs/1TC6 ! Only 5s of your time
Добавлено: 11.08.2013
Другие материалы по этой песне:
  • Аккорды и текст

Страница создана 11.08.2013
http://primanota.ru/pendulum/propane-nightmare-chords.htm
Привет, Гость.
Предлагаем пройти революционный курс по гитаре.
Подарок от PrimaNota.Ru, забирай!