PrimaNota.ru - самый крупный в мире бесплатный архив песенных текстов, аккордов, табулатур и нот


Pendulum - 9000 Miles - текст песни, бас-таба, видео

Регистрация Запомнить меня
Войти через:  Facebook Google Twitter Vk Yandex Mail.ru

Pendulum - 9000 Miles - текст песни, бас-таба, видео

Печатать
Просмотров: 173
**McGrillen uses a five string in the live version. I tabbed it so if you're 
tuning down your 4 string you only need to do 2 strings.**

Feel free to share/suggest corrections
-------------------------------------------------------------------------------
                             9,000 MILES - Pendulum
-------------------------------------------------------------------------------

Tuning: 5-string Standard (BEADG)
(~) = let the note ring out

INTRO
G|---------------------------------------------------------------------------|
D|---------------------------------------------------------------------------|
A|---------------------------------------------------------------------------|
E|-1----1----1----1----1-3-4---4---4-6------6--------------------------------|
B|------------------------------------3---3---3----0----0----0----0----0-2---|


G|---------------------------------------------------------------------------|
D|---------------------------------------------------------------------------|
A|---------------------------------------------------------------------------|
E|-------------------------1----1----1----1----1-----3-4---4---6-------6-----|
B|-0----0----0----0----0-3---------------------------------------3---3---3---|


G|---------------------------------------------------------------------------|
D|---------------------------------------------------------------------------|
A|---------------------------------------------------------------------------|
E|---------------------------------------------------------------------------|
B|---0----0----0----0----0-2----0----0----0----0-----------------------------|

G|---------------------------------------------------------------------------|
D|---------------------------------------------------------------------------|
A|---------------------------------------------------------------------------|
E|--------------------------------44----44----44-----------6666--------------| X4
B|-----00------33--00------00---------------------33---3---------------------|

VERSE
G|---------------------------------------------------------------------------|
D|---------------------------------------------------------------------------|
A|---------------------------------------------------------------------------|
E|----3-----3-------------3-----3-------------3---3--------------------------|
B|--0------0----00--0-2-0-----0-----00--0-2-0----0----00--0-2-----4~----6~---|

CHORUS
G|---------------------------------------------------------------------------|
D|---------------------------------------------------------------------------|
A|---------------------------------------------------------------------------|
E|---------------------------------------------------------------------------| X2
B|-----2~----4~-----0~----0~-----8~-----10~-----0~------0~-------------------|

Verse & Chorus repeat
Добавлено: 28.12.2013
Другие материалы по этой песне:

Страница создана 21.07.2012
http://primanota.ru/pendulum/9000-miles-chords.htm
Привет, Гость.
Предлагаем пройти революционный курс по гитаре.
Подарок от PrimaNota.Ru, забирай!