PrimaNota.ru - самый крупный в мире бесплатный архив песенных текстов, аккордов, табулатур и нот


Pearl Jam - No Code - аккорды и текст, таба, видео

Регистрация Запомнить меня
Войти через:  Facebook Google Twitter Vk Yandex Mail.ru

Pearl Jam - No Code - аккорды и текст, таба, видео

Печатать
Просмотров: 131
No Code
Pearl Jam
		   I didn't make any of these tabs, I just put them in one spot if you're looking to play the whole CD of No Code by Pearl Jam

Song Order
1. Sometimes
2. Hail, Hail
3. Who You Are
4. In My Tree
5. Smile
6. Off He Goes
7. Habit
8. Red Mosquito
9. Lukin
10. Present Tense
11. Mankind
12. I'm Open (missing from here)
13. Around The Bend

Sometimes

Riff 1 (guitar 1):

e:-----------------------------------|
h:------1-----1---1-----1-------1----|
g:------------------1-1---1-2-2---2--|
d:--0-0---0-0---0--------------------|
A:-----------------------------------|
E:-----------------------------------|


Guitar 2
Riff 1:                Riff 2:                    Riff 3:

e:--------------17--|  e:--17----17-|  e:------------------------|
h:--------------17--|  h:-----17----|  h:------------------------|
g:------------------|  g:-----------|  g:------------------------|
d:--14-14-15-16-----|  D:-----------|  D:--14-14-14-14-14-15-16--|
A:------------------|  A:-----------|  A:------------------------|
E:------------------|  E:-----------|  E:------------------------|


Guitar 1
Riff 2:

e:|-----------------------------------|
h:|-----------------------------------|
g:|-----------------------------------|
d:|-----------------------------------|
A:|------3-----3---3-----3-------3----|
D:|--1-1---1-1---1---0-0---0-1-1---1--|


Hail, Hail

Riff 1:

e:-------------------------------------------------------------------|
h:-------------------------------------------------------------------|
g:--7-7-7--10--10-10--6--6-6--7--7-7-----------------5--5-5--3--3-3--|
d:--7-7-7--10--10-10--6--6-6--7--7-7--5-5-5--7--7-7--5--5-5--3--3-3--|
A:--5-5-5---8---8--8--4--4-4--5--5-5--5-5-5--7--7-7--3--3-3--1--1-1--|
E:------------------------------------3-3-3--5--5-5------------------|


Riff 2 (2 times)...

e:---------------------------------|
h:---------------------------------|
g:--3-3-3--------------------------|
d:--3-3-3-5(5-5-5-5-5-5-5-5-5-5-5)-|
A:--1-1-1-5(5-5-5-5-5-5-5-5-5-5-5)-|
E:--------3(3-3-3-3-3-3-3-3-3-3-3)-|

...and then:

e:|-------------------------------|-------------------------------|
h:|-------------------------------|-------------------------------|
g:|--3-3-3-------3-3-3-3-3-3-3-3--|------3-3-3-3-3-3-3-3-3-3-3-3--|
d:|--3-3-3-5-5-5-3-3-3-3-3-3-3-3--|5-5-5-3-3-3-3-3-3-3-3-3-3-3-3--|
A:|--1-1-1-5-5-5-1-1-1-1-1-1-1-1--|5-5-5-1-1-1-1-1-1-1-1-1-1-1-1--|
E:|--------3-3-3------------------|3-3-3--------------------------|


Riff 3 (2 times):

e:---------------------------------|
h:---------------------------------|
g:--5-5-5--------------------------|
d:--5-5-5-5(5-5-5-5-5-5-5-5-5-5-5)-|
A:--3-3-3-5(5-5-5-5-5-5-5-5-5-5-5)-|
E:--------3(3-3-3-3-3-3-3-3-3-3-3)-|

...and then::

e:|-------------------------------|-------------------------------|
h:|-------------------------------|-------------------------------|
g:|--5-5-5-------3-3-3-3-3-3-3-3--|------3-3-3-3-3-3-3-3-3-3-3-3--|
d:|--5-5-5-5-5-5-3-3-3-3-3-3-3-3--|5-5-5-3-3-3-3-3-3-3-3-3-3-3-3--|
A:|--3-3-3-5-5-5-1-1-1-1-1-1-1-1--|5-5-5-1-1-1-1-1-1-1-1-1-1-1-1--|
E:|--------3-3-3------------------|3-3-3--------------------------|


Riff 4:

e:------------------------------|
h:------------------------------|
g:--7-7-7--6-6-6--5-5-5---------|
d:--7-7-7--6-6-6--5-5-5--5-5-5--|
A:--5-5-5--4-4-4--7-7-7--5-5-5--|
E:-----------------------3-3-3--|


Lyrics:

Is there room enough for both of us?
Both of us apart?
Are we bound out of obligation?
Is that all we got?
(I)Get the words and then I get to thinking
I don't want to think I wanna feel
How do I feel?
How do I?

Chorus:
If you're the only one
Will I ever be enough?
Hail hail the lucky ones
I refer to those in love

Swore I'd love till the day I die
And beyond
Are we going to the same place?
If so, can I come?
It's egg rolling thick and heavy
The past we carry
I could be new
You underestimate me

Chorus

I sometimes realize
I could only be as good
As you let me
Are you woman enough to be my man?
Bandaged hand in hand

Chorus II:

?
?
Hail hail the lucky ones
I refer to those in love

That you're the only one
G good you, only one
I want to be your one
Your one
Your one


Words & music: Stone Gossard, Eddie Vedder, Jeff Ament, Mike McCready





Posted by Bob ^ÓHawk^Ô Callaway
January 5, 1997
Email Comments to rdcallaway@juno.com

^ÓHail, Hail^Ô
by
Pearl Jam

Off the recently released album, No Code

Written by : Stone Gossard, Eddie Vedder, Jeff Ament, Mike McCready

The song and this tab are in standard tuning. This isn^Òt a very hard song to play, basically

patterns with variations.

Introduction/Chorus

E|-----------------------------------------------------------------------------------------------

----------|
B|-----------------------------------------------------------------------------------------------

----------|
G|--7------------6----7---------------------------------7------------6-----7---------------------

-------|
D|--7-----7-----6-----7-----5-----7-----10-----8-----7-----7------6-----7-----5-----7----10---8--

-|
A|--5-----7-----4-----5-----5-----7-----10-----8-----5-----7------4-----5-----5-----7----10---8--

-|
E|---------5------------------3-----5-----8------6------------5-------------------3-----5----8---

-6---|

Verse

E|---------------------------------------------------------------------------------------------|
B|---------------------------------------------------------------------------------------------|
G|---------------------------------------------------------------------------------------------|
D|----5----5---5---5---5---5---5---5---8--8--8--5--5--5--5--5--5--5--5--8--8--8------|
A|----5----5---5---5---5---5---5---5---8--8--8--5--5--5--5--5--5--5--5--8--8--8------|
E|----3----3---3---3---3---3---3---3---6--6--6--3--3--3--3--3--3--3--3--6--6--6------|

E|-----------------------------------------------------------------------------------------------

-|
B|-----------------------------------------------------------------------------------------------

-|
G|-----------------------------------------------------------------------------------------------

-|
D|----5--5--5--8--8--8--8--8--8--8--8--8--5--5--5--8--8--8--8--8--8--8--8--10-10-10-|
A|----5--5--5--8--8--8--8--8--8--8--8--8--5--5--5--8--8--8--8--8--8--8--8--10-10-10-|
E|----3--3--3--6--6--6--6--6--6--6--6--6--3--3--3--6--6--6--6--6--6--6--6---8--8--8---|

Back to Introduction/Chorus

Then , Guitar 1 plays over and over :

E|-----------------------------------------------------------------------------------------------

|
B|-----10^×8^×7^×8^×10^×8^×7^×8^×10^×8^×7^×8^×10^×8^×7--8--10--8--7--8--|
G|-----------------------------------------------------------------------------------------------

|
D|-----------------------------------------------------------------------------------------------

|
A|-----------------------------------------------------------------------------------------------

|
E|-----------------------------------------------------------------------------------------------

|

Underneath Guitar 1, Guitar 2 plays:

E|-----------------------------------------------------|
B|-----------------------------------------------------|
G|--7------------6----7-----------------6-----7-----|
D|--7-----7-----6-----7---------7------6-----7-----|
A|--5-----7-----4-----5---------7------4-----5-----|
E|---------5----------------------5-------------------|

Play this until end of the song!

E|-----------------------------------------------------------------------------------------------

|
B|-----10^×8^×7^×8^×10^×8^×7^×8^×10^×8^×7^×8^×10^×8^×7--8--10--8--7--8--|
G|-----------------------------------------------------------------------------------------------

|
D|-----------------------------------------------------------------------------------------------

|
A|-----------------------------------------------------------------------------------------------

|
E|-----------------------------------------------------------------------------------------------

|

Lyrics:

Is there room for both of us
both of us apart?
Are we bound out of obligation?
Is that all we^Òve got?
I get the words,
and when I get to thinking
I don^Òt want to think,
I want to feel
How do I feel? ^Å.
How do I? ^Å.

If you^Òre they only one
when I^Òve had enough
Hail, Hail to the lucky ones
I refer to those in love

I swore I^Òd love
until the day I die
^Åand beyond^Å
Are we going
to the same place?
If so, can I come?
It^Òs egg rolling
thick and heavy
the past we carry
I could be new
You underestimate me

If you^Òre the only one
when I^Òve had enough
Hail, hail to the lucky ones
 I refer to those in love

I sometimes realize
I could only be as good
as you let me
Are you woman enough
to be my man?
Bandaged hand in hand

I climbed it on
I run in a race
that can^Òt be won
All hail the lucky ones
I refer to those in love
If you^Òre my only one
G good you, only one
I want to be your only one
enough, your one
your one, your one

Enjoy! (
^Uþ^Uo^Hdo^Hê
o^Hê
o^Hdo^Hê
o^Hê
^Àt^Àttyttt^V^V^Vtyt÷^Vttyyp^E&YÄY^ÖÑ4Ñ?y^?^?^?^?^?^?^?^?^?^?^?^?^?^?^?^?^?^?^?^?^?^?^?^?^?^

?^?^?^?^?^?^?^?^?^?^?^?^?^?^?^?^?^?^?^?^?^?^?^?^?^?^?^?^?^?^?^?^?^?^?^?^?^?^?^?^?^?^?^?^?^?^?^?^?

^?^?^?^?^?^?^?^?^?^?^?^?^?^?^?^?^?^?^?^?^?^?^?^?^?^?^?^?^?^?^?^?^?^?^?^?^?^?^?^?^?^?^?^?^?^?^?^?^

?^?^?^?^?^?^?^?^?^?^?^?^?^?^?^?^?^?^?^?^?^?^?^?^?^?^?^?^?^?^?^?^?^?^?^?^?^?^?^?^?^?^?^?^?^?^?^?^?

^?^?^?^?^?^?^?^?^?^?^?^?^?^?^?^?^?^?^?^?^?^?^?^?^?^?^?^?^?^?^?^?^?^?^?^?^?^?^?^?^?^?^?^?^?^?^?^?^

?^?^?^?^?^?^?^?^?^?^?^?^?^?^?^?^?^?^?^?^A^?^?^?^?^?^?^?^?^?^?^?^?^?^?^?^?^?^?^?^?^?^?^?^?^?^?^?^?

^?^?^?^?^?^?^?^?^?^?^?^?^?^?^?^?^?^?^?^?^?^?^?^?^?^?^?^?^?^?^?^?^?^?^?^?^?^?^?^?^?^?^?^?^?^?^?^?^

?^?^?^?^?^?^?^?^?^?^?^?^?^?^?^?^?^?^?^?^?^?^?^?^?^?^?^?^?^?^?^?^?^?^?^?^?^?^?^?^?^?^?^?^?^?^?^?^?

^?^?^?^?^?^?^?^?^?^?^?^?^?^?^?^?^?^?^?^?^?^?^?^?^?^?^?^?^?^?^?^?^?^?^?^?^?^?^?^?^?^?^?^?^?^?^?^?^

?^?^?^?^?^?^?^?^?^?^?^?^?^?^?^?^?^?^?^?^?^?^?^?^?^?^?^?^?^?^?^?^?^?^?^?^?^?^?^?^?^?^?^?^?^?^?^?^?

^?^?^?^?^?^?^?^?^?^?^?^?^?^?^?^?^?^?^?^?^?^?^?^?^?^?^?^?^?^?^?^?^?^?^?^?^?^?^?^?^?^?^?^?^?^?^?^?^

?^?^?^?^?^?^?^?^?^?^?^?^?^?^?^?^?^?^?^?^?^?^?^?^?^?^?^?^?^?^?^?^?^?^?^?^?^?^?^?^?^?^?^?^?^?^?^?^?

^?^?^?^?^?^?^?^?^?^?^?^?^?^?^?^?^?^?^?^?^?Ü¥h^Ï# This file is the author's own work and

represents their interpretation of the song. You may only use this--# # for private study,

scholarship, or research.

-------------------------------------------------------------------------#
#------------------------------------------------------------------------------------------------

----------------------------#

Posted by Bob ^ÓHawk^Ô Callaway
January 5, 1997
Email Comments to rdcallaway@juno.com

^ÓHail, Hail^Ô
by
Pearl Jam

Off the recently released album, No Code

Written by : Stone Gossard, Eddie Vedder, Jeff Ament, Mike McCready

The song and this tab are in standard tuning. This isn^Òt a very hard song to play, basically

patterns with variations.

Introduction/Chorus

E|-----------------------------------------------------------------------------------------------

----------|
B|-----------------------------------------------------------------------------------------------

----------|
G|--7------------6----7---------------------------------7------------6-----7---------------------

-------|
D|--7-----7-----6-----7-----5-----7-----10-----8-----7-----7------6-----7-----5-----7----10---8--

-|
A|--5-----7-----4-----5-----5-----7-----10-----8-----5-----7------4-----5-----5-----7----10---8--

-|
E|---------5------------------3-----5-----8------6------------5-------------------3-----5----8---

-6---|

Verse

E|---------------------------------------------------------------------------------------------|
B|---------------------------------------------------------------------------------------------|
G|---------------------------------------------------------------------------------------------|
D|----5----5---5---5---5---5---5---5---8--8--8--5--5--5--5--5--5--5--5--8--8--8------|
A|----5----5---5---5---5---5---5---5---8--8--8--5--5--5--5--5--5--5--5--8--8--8------|
E|----3----3---3---3---3---3---3---3---6--6--6--3--3--3--3--3--3--3--3--6--6--6------|

E|-----------------------------------------------------------------------------------------------

-|
B|-----------------------------------------------------------------------------------------------

-|
G|-----------------------------------------------------------------------------------------------

-|
D|----5--5--5--8--8--8--8--8--8--8--8--8--5--5--5--8--8--8--8--8--8--8--8--10-10-10-|
A|----5--5--5--8--8--8--8--8--8--8--8--8--5--5--5--8--8--8--8--8--8--8--8--10-10-10-|
E|----3--3--3--6--6--6--6--6--6--6--6--6--3--3--3--6--6--6--6--6--6--6--6---8--8--8---|

Back to Introduction/Chorus

Then , Guitar 1 plays over and over :

E|-----------------------------------------------------------------------------------------------

|
B|-----10^×8^×7^×8^×10^×8^×7^×8^×10^×8^×7^×8^×10^×8^×7--8--10--8--7--8--|
G|-----------------------------------------------------------------------------------------------

|
D|-----------------------------------------------------------------------------------------------

|
A|-----------------------------------------------------------------------------------------------

|
E|-----------------------------------------------------------------------------------------------

|

Underneath Guitar 1, Guitar 2 plays:

E|-----------------------------------------------------|
B|-----------------------------------------------------|
G|--7------------6----7-----------------6-----7-----|
D|--7-----7-----6-----7---------7------6-----7-----|
A|--5-----7-----4-----5---------7------4-----5-----|
E|---------5----------------------5-------------------|

Play this until end of the song!

E|-----------------------------------------------------------------------------------------------

|
B|-----10^×8^×7^×8^×10^×8^×7^×8^×10^×8^×7^×8^×10^×8^×7--8--10--8--7--8--|
G|-----------------------------------------------------------------------------------------------

|
D|-----------------------------------------------------------------------------------------------

|
A|-----------------------------------------------------------------------------------------------

|
E|-----------------------------------------------------------------------------------------------

|

Lyrics:

Is there room for both of us
both of us apart?
Are we bound out of obligation?
Is that all we^Òve got?
I get the words,
and when I get to thinking
I don^Òt want to think,
I want to feel
How do I feel? ^Å.
How do I? ^Å.

If you^Òre they only one
when I^Òve had enough
Hail, Hail to the lucky ones
I refer to those in love

I swore I^Òd love
until the day I die
^Åand beyond^Å
Are we going
to the same place?
If so, can I come?
It^Òs egg rolling
thick and heavy
the past we carry
I could be new
You underestimate me

If you^Òre the only one
when I^Òve had enough
Hail, hail to the lucky ones
 I refer to those in love

I sometimes realize
I could only be as good
as you let me
Are you woman enough
to be my man?
Bandaged hand in hand

I climbed it on
I run in a race
that can^Òt be won
All hail the lucky ones
I refer to those in love
If you^Òre my only one
G good you, only one
I want to be your only one
enough, your one
your one, your one


Who You Are

Start Verse
e|----------0-----0---0---0-|
B|----------9-----9---7---5-|
G|--------------------------|
D|--------------------------|
A|--------------------------|
E|--------------------------|

Verse (x 2)
e|--0---0---0-----0---0---0-|
B|--5---7---9-----9---7---5-|
G|--------------------------|
D|--------------------------|
A|--------------------------|
E|--------------------------|

Chorus
e|--0---0---0-----0---0---0-|
B|--5---4---0-----2---4---5-|
G|--------------------------|
D|--------------------------|
A|--------------------------|
E|--------------------------|

Verse (x 3)
Chorus

Post Verse 1
Take me for a ride, before we leave...
e|----0---0---0---0---0---0---0---0---0---0---0---0---0---0---0---0---0---|
B|--5---5---2---2---2---2---2---4---4---4---4---4---5---5---5---5---5---5-|
G|------------------------------------------------------------------------|
D|------------------------------------------------------------------------|
A|------------------------------------------------------------------------|
E|------------------------------------------------------------------------|

e|--0---0---0---|
B|----5---5---5-|
G|--------------|
D|--------------|
A|--------------|
E|--------------|

Verse (x 3)
Chorus

Bridge (x 2)
e|--0-0-0-0-0-0-0-0-0-0-0-0-0-0-0-|
B|--5-4-5-4-2-4-2-0-2-4-2-4-5-4-5-|
G|--------------------------------|
D|--------------------------------|
A|--------------------------------|
E|--------------------------------|

e|--0-0-0---0---0---0---0-0-0---0---0---0---0-0-0-0-0-0-0--0-0--0-0-0--0-0-|
B|--5-4-5--/9---7---5---5-4-5--/7---5---4---5-4-5-4-5-4-5-/7-5--5-4-5-/7-5-|
G|-------------------------------------------------------------------------|
D|-------------------------------------------------------------------------|
A|-------------------------------------------------------------------------|
E|-------------------------------------------------------------------------|

Post Verse 2
Just a little time before we leave...
e|--0-0-0-0-0-0-0-0-0-0-0-0-0-0-0-0-|
B|--5-5-5-5-5-5-5-5-5-5-5-5-5-5-5-5-|
G|----------------------------------|
D|----------------------------------|
A|----------------------------------|
E|----------------------------------|

Verse (x 3)
Chorus

Solo (x 5)
e|----------------------------------------|
B|----------------------------------------|
G|----------------------------------------|
D|----------------------------------------|
A|----------------------------------------|
E|--0--2--4--5--7--9--7--5--4--5--4--2--0-|

e|----------------------------------------------------------------------|
B|----------------------------------------------------------------------|
G|----------------------------------------------------------------------|
D|----------------------------------------------------------------------|
A|----------------------------------------------------------------------|
E|--0--2--4--5--7--9--7--5--4--5--0--2--4--5--7--9--7--5--4--5--4--2--0-|

In My Tree

INTRO:
E------4------  let ring  (x 2)
B------5------
G------4------
D-------------
A-------------
E-------------


VERSE 1: ("Wave to all my friends...")
E------4------0------0------0-------
B------5------0------0------0-------
G------4------4------2------4-------
D------0------4------2------4-------
A------0------2------0------2-------
E------0------0------0------0-------


CHORUS 1: ("Up here so high I start to shake..")
E------3------0-------
B------0------0-------
G------0------1-------
D------0------2-------
A------2------2-------
E------3------0-------


VERSE 2: ("I remember when, yeah...")
* Same as VERSE 1

CHORUS 2(until the end of the song) : ("I'm so light the wind he shakes...")
* Same as CHORUS 1

THE MUSICAL PART AT THE END: after=>("Still got it, still got it")
E------0------0------0------0---------------
B------0------0------0------0--------------
G------1------4------2------4---------------
D------2------4------2------4---------------
A------2------2------0------2---------------
E------0------0------0------0---------------

IN MY TREE
==========

Pearl Jam - No Code
Track 4

This represents our interpretation of the original artist's work, to be used for personal or

educational use only.

Transcibed by Bryce Christensen and Matt Forth.
If you add to this or fix any mistakes, please send us a copy.
matt@gil.com.au
(Please email if you are a drummer / bass guitarist near Brisbane interested in jammin'!!!!)

Intro Riff

E|----------------|----------------|
B|----------------|----------------|
G|----------------|----------------|
D|----------------|----------------|
A|----------------|----------------|
E|0--0-0--2--2-2--|5--5-5--7--7-7--|
  .   .   .   .    .   .   .   .


Main Riff

E|----------------|
B|--------9-------|
G|----4---9---9---|
D|2---4---7---9---|
A|2---2---7---7---|
E|0-----------7---|
  .   .   .   .



Verse 1:

Up here in my tree yeah
Newspapers mailing up to me yeah
No more crowbars to my head yeah
I'm trading stories with the leaves instead


Verse 2:

Wave to all my friends yeah
They don't seem to notice me no
I have asked it on the street
Sidewalk cigarettes and seams oh


Chorus:

Dont be so hard about your misktake
Dont be so hard the sky is grey
Im so high I'm just wondering through my head
Just like innocence


I commit the hand yeah
G I move everything oh
..
Its broken up just like me oh


Note:
I'm not that proud of this transcription - lots of holes.  If anyone out there can finish this

for me I would be very grateful (at least I got the main riffs!!!!!)

Smile

Intro/Verse:
Em	Am	Bm	Am

Lead:
e:-------------------------------
B:--------------------------15\--
G:--------------------14h16------
D:---------12\-------------------	(x2)
A:---12h14-----------------------
E:-------------------------------

Chorus:
G	C	D	C

Solo:
e:----------------------------------------
B:----------------------------------------
G:----------------------------------------
D:---------12----14-12-----------12----14-	(x3)
A:---12h14----14-----------12h14----14----
E:----------------------------------------

e:---------------------------------------
B:---------------------------------------
G:---------------------------------------
D:---------12----14-12-----------12-(12)-
A:---12h14----14-----------12h14---------
E:---------------------------------------

e:----------------------------------------------------
B:---17-15-----17-15--------------17-15---------------
G:----------------------------------------------------
D:-------------------------12-----------------12-(12)-
A:-------------------12h14--------------12h14---------
E:----------------------------------------------------

Outro:
e:---------------------------
B:---------------------------
G:---------------------------		(Repeat many times and fade)
D:---------------------------		With slight variations
A:-------5---7-5-----5-----7-
E:---5h7---7-----5h7---(7)---

SMILE
=====

Pearl Jam - No Code
Track 5

This represents our interpretation of the original artist's work, to be
used for personal or educational use only.

Transcibed by Bryce Christensen and Matt Forth.
If you add to this or fix any mistakes, please send us a copy.
matt@gil.com.au

(Please email if you are a drummer / bass guitarist near Brisbane
interested in jammin'!!!!)


INTRO / VERSE

E|----------------|
B|----------------|
G|----2---4---2---|
D|2---2---4---2---|
A|2---0---2---0---|
E|0---------------|
  .   .   .   .


CHORUS

E|----------------|
B|----------------|
G|----------------|
D|5---7---9---7---|
A|5---7---9---7---|
E|3---5---7---5---|
  .   .   .   .


Verse 1:

Don't it make you smile
Don't it make you smile
When the sun don't shine (it don't shine at all)
Don't it make you smile


Verse 2:

Don't it make it smile
Don't it make me smile
When the sun don't shine it don't shine at all
Don't it make me smile


Chorus:

I miss you aleady
I miss you always
I miss you already
I miss you all day


Verse riff x 8


Chorus:

I miss you aleady
I miss you always
.....swears all around
I miss you all day

Off He Goes

ok, this one's not too tough... basically three chords, though there are
some nice variations you can throw in if you want- i added in a
G/F-Asus2-Am pattern that can just be left as F-C-Am if you prefer...
and instead of playing Fs, you can play Csus4 (11033x)... that sounds
pretty good, too.

Intro
----------------------------------------------------
---------------------0--1---------------------------
---------------------2--2---------------------------
--------3--2--2------2--2---------------------------
--0--3----------------------------------------------
----------------------------------------------------
[repeat 2x]

----------------1-----------------------------------
----------------1--1--1-----------------------------
----------------2--0--0-----------------------------
--------3--2----3--2--2-----------------------------
--0--3----------3--3--3-----------------------------
----------------------------------------------------

F C

F C           F C                    Am
  Know a man... His  face pulled and tense...
          F C                             G/F  Asus2 Am
Like he's riding on a motorbike... in the strongest  winds
       F           C                    F           C
G I approach with tact... suggest that he should relax
    F           C      G/F      F
But he's always moving much too fast
                             Am Asus2 Am                          Asus2 Am
Said he'll see me on the flipside...      of this trip he's taken for a ride

          F C       F        C     F      C
He's been takin'... too much on... off he goes
            F   C  G/F Asus2 Am         F        C
with his perfectly un--kept  clothes... there he goes

------------------------------------------------------
------------------------------------------------------
------------------------------------------------------
--2--2--2--3--2--3--2-----0--2----2--2--2--3--2--3--2-
-----------------------3------------------------------
------------------------------------------------------

------------------------------------------------------
------------------------------------------------------
-----2--0-------------------------------2--0----------
--0--------0--0--2----2--3--2--3--2--0--------0--2--0-
------------------------------------------------------
------------------------------------------------------

------------------------------------------------------
------------------------------------------------------
-----------2--0---------------------------------------
--3--2--0--------0--2--0------------------------------
------------------------------------------------------
------------------------------------------------------

F C Am

     F           C     F C
He's yet to come back... but I see his picture
F C                F    C         Am         F      C
  Doesn't look the same up on the rack... we go way back
F                    Am Asus2  Am                                Asus2   Am
I wonder 'bout his insides... it's like his thoughts are too big for his size

          F C              F       C       F      C
He's been taken... Where?  I don't know... off he goes
            F   C  G/F Asus2 Am      F        C
with his perfectly un--kept  hope... there he goes

[repeat chorus riff]

          F      C              F     C
And now I rub my eyes... for he has returned
F C           F     C              G/F         Asus2 Am
  Seems my preconceptions are what should have been  burned
    F        C
For he still smiles... and he's still smiling
F C                            F        C           G/F  Asus2 Am
  Nothing's changed but the surrounding bullshit... that has   grown

F            C    F         C
And now he's home and we're laughing
F              C      F       C               Am
Like we always did... my same old... same old friend
        F          C                F            C
Until a quarter to ten... I saw the strain creep in
F C                          F         C                G/F Asus2 Am
  He seemed distracted and I know just what is going to hap-pen   next
           F     C       F         C
Before his first step... he is off again



          Am (strum Am a few times)
E|---------0-
B|---------1-
G|---------2- x 2
D|-----3-2-2-
A|---3-----0-
E|-1---------

then
           F C C
E|---------1-0-0-
B|---------1-1-1-
G|-------2-2-0-0-
D|-----3---3-2-2-
A|---3-----3-3-3-
E|-1-------1-----

Then the rest of the song is basically just a combination
or F, C and Am chords. A classic "3 chord"-er.


There's also this little bit, or something similar.

E|--------------|------|--------------|-----------|
B|--------------|------|--------------|-----------|
G|--------------|------|--------------|-2-0-------|
D|-3-2-3-2-3-2--|-0--2-|-3-2-3-2-3-2--|-----0-0-2-|
A|-------------3|------|-------------3|-----------|
E|--------------|------|--------------|-----------|

Habit

Part One - A5 D5 G#5
SEE IT HAPPEN TO A COUPLE OF FRIENDS
SEE IT HAPPEN AND IT REMINDS ME OF THEM
TAKE IT OUT, FOR WHAT'S AN OBVIOUS FALL
JUST TO SEE WHAT ALL THE FUSS IS ABOUT


Part Two
------------------------------------
------------------------------------
--3-7-3-3-7-3-7---------------------
------------------------------------
------------------------------------
------------------------------------
I'VE TOLD YOU WHY, DON'T YOU WAIT
I'VE TOLD YOU WHY...


Part Three - A5 D5 G#5
I GOT A HABIT AS I SING TO YOU
I'VE GOT A HABIT AND IT'S LONG OVERDUE
I DON'T WANT A HABIT, LIKE I DON'T WANT A FRIEND
I'M SO HAPPY WITH MY RIGHTOUS SELF


Part Four
------------------------------------
------------------------------------
--3-7-3-3-7-3-7---------------------
------------------------------------
------------------------------------
------------------------------------
I'VE TOLD YOU WHY, DON'T YOU WAIT
I'VE TOLD YOU WHY...


Part Five - F5 E5 D5
NEVER THOUGHT YOU'D EVER... (3X)
NEVER THOUGHT YOU... (2X)
NEVER THOUGHT YOU'D EVER... (3X)
NEVER THOUGHT YOU...


Part Six
F5 - NEVER THOUGHT YOU'D EVER...
E5 D5 - NEVER THOUGHT YOU'D EVER...
F5 - NEVER THOUGHT YOU'D EVER...
E5 D5 - NEVER THOUGHT YOU'D EVER...
F5 - NEVER THOUGHT YOU'D EVER... - E5 D5 - F5


Part Seven - F5 E5 D5
NEVER THOUGHT YOU'D EVER... (3X)
NEVER THOUGHT YOU... (2X)
NEVER THOUGHT YOU... (2X)


Part Eight
F5 - E5 - G5 - F#5 - F5 - D5


Part Nine - F5 E5 D5

Chord Chart
A5   D5   G#5   F5   E5   G5   F#5
----------------------------------
----------------------------------
----------------------------------
-----7---------------2------------
-7---5-----6-----3---2-----5----4-
-5---------4-----1---------3----2-

Best
Leo
dadson@neosoft.com

Red Mosquito

Transcribed by Paul Stipack (paul.stipack@hunterlink.net.au)
Modified by Joel Farthing (Betterman9@aol.com)

A couple of people have said they've seen PJ play this live and
it's in standard tuning. I've also been told that the opening riff
is played at the 5th fret so I've tried to figure it out there,
I hope it sounds OK.
Anyone want to have a go at the solos?


INTRO:
E-|-------------------|-
B-|-------------------|-
G-|-7---------------7-|-
D-|-7-7-----7-7-----7-|-
A-|-5-0h5p0-8-0h5p0-5-|-
E-|-------------------|-

VERSE:
   D  F(let ring)                      D  C(let ring)
E|-2--1--------------------------------2--0----------|
B|-3--1--------------------------------3--1----------|
G|-2--2--------------------------------2--0----------|
D|-0--3--------------------------------0--2----------|
A|----------------------------------------3----------|
E|---------------------------------------------------|
the window,little red mosquito...I was not allowed to (etc.)


   D  F(let ring)                      D  C  F  C
E|-2--1--------------------------------2--0--1--0------|
B|-3--1--------------------------------3--1--1--1------|
G|-2--2--------------------------------2--0--2--0------|
D|-0--3--------------------------------0--2--3--2------|
A|----------------------------------------3-----3------|
E|-----------------------------------------------------|
I saw the sun go down, and now..(etc)..somewhere in

PRE CHORUS:
E-|-------------------|-
B-|-------------------|-
G-|-7---------------7-|-
D-|-7-7-----7-7-----7-|-
A-|-5-0h5p0-8-0h5p0-5-|-
E-|-------------------|-

CHORUS:
    F                  C
E-|------------------|-------------|-
B-|---------10-------|-------5-----|-
G-|------10----10----|-----5---5---|-
D-|---10----------10-|---5-------5-|-
A-|-8----------------|-3-----------|-
E-|------------------|-------------|-

    D#            A#            C
E-|-------------|-------------|------|-
B-|-------8-----|-------3-----|------|-
G-|-----8---8---|-----3---3---|-5--5-|-
D-|---8-------8-|---3-------3-|-5--5-|-
A-|-6-----------|-1-----------|-3--3-|-
E-|-------------|-------------|------|-

LITTLE C RIFF AT END OF CHORUS:
E-|-----------|--------------------|-
B-|-----------|--------------------|-
G-|-10--9-----|-(second--10--9--12-|-
D-|--------10-|--chorus)-----------|-
A-|-----------|--------------------|-
E-|-----------|--------------------|-

The rest of the song is basically just repeats of the above
progressions, so just play along with the CD to get the right
pattern and structure.



RED MOSQUITO
============

Pearl Jam - No Code
Track 8

This represents our interpretation of the original artist's work, to be used for personal or

educational use only.

Transcibed by Matt Forth.
If you add to this or fix any mistakes, please send us a copy.
matt@gil.com.au
(Please email if you are a drummer / bass guitarist near Brisbane interested in jammin'!!!!)

INTRO

E|----------------|
B|----------------|
G|7-------7---5---|
D|7---7---7---5---|
A|5---7---5---3---|
E|----5-----------|
  .   .   .   .


VERSE

E|----------------|----------------|
B|----------------|----------------|
G|7---------------|7---9-----------|
D|7---7-----------|7---9-----------|
A|5---7-----------|5---7-----------|
E|----5-----------|----------------|
  .   .   .   .    .   .   .   .


E|----------------|----------------|
B|----------------|----------------|
G|7---------------|7---9--10---9---|
D|7---7-----------|7---9--10---9---|
A|5---7-----------|5---7---8---7---|
E|----5-----------|----------------|
  .   .   .   .    .   .   .   .


CHORUS

E|----------------|----------------|
B|----------------|----------------|
G|10------8-------|----------------|
D|10--10--8---8---|10--------------|
A|8---10--6---8---|10--------------|
E|----8-------6---|8---------------|
  .   .   .   .    .   .   .   .

E|----------------|----------------|----------------|
B|----------------|----------------|----------------|
G|10------8-------|----------------|----------------|
D|10--10--8---8---|10--------------|10--------------|
A|8---10--6---8---|10--------------|10--------------|
E|----8-------6---|8---------------|8---------------|
  .   .   .   .    .   .   .   .    .   .   .   .



Intro riff x 8


Verse 1:

Watched out the window with a red mosquito
I was not allowed to leave the room
I saw the sun go down and now it's coming up
Somewhere in the time between


Chorus:

I was bitten
must have been the devil
He was just paying me

A little visit
Reminded me of his presense
Letting me know

He's waiting


Intro riff x4


Verse 2:

Red man's your neighbor call it behavior
While you're climbing up slippery hills
Two steps ahead of him punctures in your neck
hovering just above your bed hovering just above your bed


Chorus


Intro riff x 8


Chorus riff (first bar only) x 8 out


Lukin

Verse - E5 (D5) E5 (C5) - The Chords In Parenthesis Are The Pull Off Chords.
I SEE THEM SUFFER
I SEE MY WORLD, MY FUCKING HOME
I'D NEVER LEAVE YOU, NEVER LEAVE YOU, RUN AWAY FROM HOME
I NEVER THOUGHT I'D NEVER CHANGE MY MIND AWAY FROM HOME
I'M GOING TO LEAVE RIGHT NOW
I'M LEANING ON THE WEIGHT ALONE


Chorus - E5 D5 C5 - The End Of The Chorus Is A Quick Slide Down From C5 By
D5 And E5
OH, I LOVE LUKIN
OH, I LOVE LUKIN
I LOVE LUKIN
LOOKING FOR SOME PROOF
IS THAT HOW MY LIFE IS RUN?


Verse - E5 (D5) E5 (C5) - The Chords In Parenthesis Are The Pull Off Chords.
I SEE MYSELF UP
I LEAVE IT ON THE WAVE ALONE
I'D NEVER LEAVE YOU, NEVER TAKE MY WORLD, MY FUCKING HOME
I NEVER THOUGHT THAT I COULD TAKE MY WORLD AWAY FROM HOME
I CAN'T DENY IT
I CAN'T CONTROL MYSELF


Verse Chords
E5    D5    C5
------------------
------------------
------------------
------------------
14----12----10----
12----10-----8----

Chorus Chords
E5    D5    C5
------------------
------------------
------------------
-9-----7-----5----
-7-----5-----3----
------------------

Best
Leo
dadson@neosoft.com

Present Tense

Drop D tuning: DADGBe

The verse is variations of this (shown here is the first time through):

--5------------5-------------5----------3-2-0---0----
----3-3-3-3-3----3---3-------------------------------
----------------------------------------------2---2-2
0------------------------------- 5>------------------
-------------3-----3---3-3-2--------2-0--------------
-----------------------------------------------------


Chorus:

D         G   F     G   D       G     F     G D G F G D G
-------------------------------------------             ---
-------------------------------------------             ---
-------------------------------------------  etc.       ---
0--0----X-5-5^3-3-X-5-5^0-0-0-X-5-5-5^3-3-3             X-5
0--0----X-5-5^3-3-X-5-5^0-0-0-X-5-5-5^3-3-3             X-5
12-12\0-X-5-5^3-3-X-5-5^0-0-0-X-5-5-5^3-3-3             X-5

The first time through, Mike lets it end at the G, the second time (not
shown) a D

Then the bridge goes like this, (with variations on the picking
pattern):

Bb                            A                         G
---------------------------------------------------------------
---------------------------------------------------------------
------10-----10-----10-----10-------9-----9-----9-----9--------
8-8-8----8-8----8-8----8-8----7-7-7---7-7---7-7---7-7---5-5-5--
---------------------------------------------------------------
---------------------------------------------------------------

-----------------------------------------------
-----------------------------------------------
7-----7-----7-----7-------7-----7-----7-----7--
--5-5---5-5---5-5---5-5-5---5-5---5-5---5-5----
-----------------------------------------------
-----------------------------------------------

Then:

Bb                      A                       G

---------------------------------------------------------------------
11-11-11-11-11-11-11-11-10-10-10-10-10-10-10-10-8-8-8-8-8-8-8-8-8-8-8
10-10-10-10-10-10-10-10-9--9--9--9--9--9--9--9--7-7-7-7-7-7-7-7-7-7-7
8--8--8--8--8--8--8--8--7--7--7--7--7--7--7--7--5-5-5-5-5-5-5-5-5-5-5
---------------------------------------------------------------------
---------------------------------------------------------------------

----------------                --
8-8-8-8-8-------                10
7-7-7-7-7------- etc.           8-
5-5-5-5-5------- then this      7-
---------------- several times: --
----------------                --

Outro:

While mike plays the verse, Stone does this:

--------------------------       /14-------14-------14-------
15-13----15-13----15-13--- etc.  ----12-12----12-12----12-12-
------12-------12-------12 then: ----------------------------
--------------------------       ----------------------------
--------------------------       ----------------------------
--------------------------       ----------------------------



And fade....






PRESENT TENSE
=============

Pearl Jam - No Code
Track 10

This represents our interpretation of the original artist's work, to be used for personal or

educational use only.

Transcibed by Bryce Christensen and Matt Forth.
If you add to this or fix any mistakes, please send us a copy.
matt@gil.com.au
(Please email if you are a drummer / bass guitarist near Brisbane interested in jammin'!!!!)


Main Riff:

  D                C                B#

E|------5---------|------5---------|------5---------|
B|--------3-------|--------3-------|--------3-------|
G|----------------|----------------|----------------|
D|0---------------|----------------|----------------|
A|----------------|3---------------|2---------------|
E|----------------|----------------|----------------|
  .   .   .   .    .   .   .   .    .   .   .   .


  A

E|--3---2---0-----|
B|----------------|
G|---------------.|
D|---------------.|
A|--0-------------|
E|----------------|



Chorus Riff:

E|--------------------------|
B|--------------------------|
G|--------------------------|
D|------------------00000---|
A|00------------------------|
E|----33311-0-0-------------|





Verse 1: (main riff)

C you see the way that tree bends

does it inspire,

leaning out to catch the suns rays

a lesson to be applied

are you getting something out of this

all encompassing trip


Chorus: (chorus riff)


You can't spend your time alone,

redigesting past regrets.....Oh

You can't come to terms  and realise

your the only one who cannot forgive yourself

Makes much more sense,

to live in the present tense


2nd verse: (main riff)


Have you ideas on how this life ends,

Checked your ends and studied the line,

Have you ever belived that the road ahead

sands off into the light

seems that needlessly it getting harder

to find an approach and no where to live

are we getting something out of this

all encompassing trip


Chorus (chorus riff)


Bridge:

(one beat = quarter bar?)

16 x D, 16 x C, 32 x G
16 x D, 16 x C, 32 x G
8 x D, 8 x C, 16 x G
8 x D, 8 x C, 16 x G
8 x D, 8 x C, 16 x G
8 x D, 8 x C, 16 x G
32 x D


Main Riff Out


Mankind

chord voicings
B5  = X244XX
E5  = 022XXX OR X799XX
C#5 = X466XX
G#5 = 466XXX
A5  = 577XXX
C5  = X355XX
F#5 = 244XXX

Mankind
intro -
B5 B5 B5 B5 E5 E5 E5 E5 C#5 C#5 C#5 C#5 G#5 G#5 G#5 G#5

B5 B5 B5 B5 E5 E5 E5 E5 C#5 C#5 A5 A5 A5 A5

(ok main riff here)
C5 C5 C5 C5 C5 F#5

C5 C5 C5 C5 C5 F#5

C5 C5 C5 C5 C5 F#5
You'll be,
C5 C5 C5 C5 C5 F#5
going out with radio
C5 C5 C5 C5 C5 F#5
going out with disco
C5 C5 C5 C5 C5 F#5
going out with bacchanal
C5 C5 C5 C5 C5 F#5
I'll be,
C5 C5 C5 C5 C5 F#5
going out with telephone
C5 C5 C5 C5 C5 F#5
going out alone
C5 C5 C5 C5 C5 F#5
to the radar zone

B5 B5 B5 B5   E5 E5 E5 E5 C#5 C#5 C#5 C#5 G#5 G#5 G#5 G#5
it's all just inadvertent imitation       I don't mean mine
B5 B5 B5 B5 E5 E5 E5 E5    C#5 C#5 G#5 G#5 G#5 G#5
it's all across this nation
B5 B5 B5 B5  E5 E5 E5 E5 C#5 C#5 C#5 C#5 G#5 G#5 G#5 G#5
if it's just inadvertent simulation      A pattern in all mankind
B5 B5 B5 B5 E5 E5 E5 E5 C#5 C#5 C#5 C#5 A5 A5 A5 A5
what's got the whole world fakin'?

C5 C5 C5 C5 C5 F#5
I'll be,
C5 C5 C5 C5 C5 F#5
playin' with my magazine
C5 C5 C5 C5 C5 F#5
usin' up my lysterine
C5 C5 C5 C5 C5 F#5
like ovaltine
C5 C5 C5 C5 C5 F#5
and you'll be
C5 C5 C5 C5 C5 F#5
dippin in your battleship
C5 C5 C5 C5 C5 F#5
for the latest tip
C5 C5 C5 C5 C5 F#5
for the latest dream

B5 B5 B5 B5   E5 E5 E5 E5 C#5 C#5 C#5 C#5 G#5 G#5 G#5 G#5
it's all just inadvertent imitation       I don't mean mine
B5 B5 B5 B5 E5 E5 E5 E5    C#5 C#5 G#5 G#5 G#5 G#5
it's all across this nation
B5 B5 B5 B5  E5 E5 E5 E5 C#5 C#5 C#5 C#5 G#5 G#5 G#5 G#5
if it's just inadvertent simulation      A pattern in all mankind
B5 B5 B5 B5 E5 E5 E5 E5 C#5 C#5 C#5 C#5 A5 A5 A5 A5
what's got the whole world fakin'?

-SOLO OVER THIS BASSLINEm this basline is repeated 3 times
-solo is Em pent... i think-
G----------------------------------------------------
D----------------------------------------------------
A----------------------------------------------------
E-0-0-0-0-0-9-0-0-0-0-10-0-0-0-0-11-0-0-0-0-12-0-0-0-
                                            ^
third time through dont hit the 12 just leave it open
mike just rides an E while stone solos
-muted strings here-
B5 B5 B5 B5  E5 E5 E5 E5 C#5 C#5 C#5 C#5 G#5 G#5 G#5 G#5
if it's just inadvertent imitation       a pattern in all mankind
B5 B5 B5 B5  E5 E5 E5 E5           C#5 C#5 G#5 G#5
what's got the whole world fakin'?
B5 B5 B5 B5  E5 E5 E5 E5           C#5 C#5 G#5 G#5
what's got the whole world fakin'?
B5 B5 B5 B5  E5 E5 E5 E5           C#5 C#5 G#5 G#5
what's got the whole world fakin'?
B5 B5 B5 B5  E5 E5 E5 E5           C#5 C#5 G#5 G#5
what's got the whole world fakin'?
B5 B5 B5 B5  E5 E5 E5 E5           C#5 C#5 G#5 G#5 G#5 G#5
what's got the whole world fakin'?
B5 B5 B5 B5  E5 E5 E5 E5           C#5 C#5 G#5 G#5 G#5 G#5
what's got the whole world fakin'?
B5 B5 B5 B5  E5 E5 E5 E5 C#5 C#5 C#5 C#5 A5 A5 A5 A5 B5/


From Louis Akins - blackjak@pacbell.net

This is played in standard tuning w/medium distortion

Intro/Chorus:
E------------------------------------------------
A------------------------------------------------
D-4-4-4-4-4-4-4-4-9-9-9-9-9-9-9-9-6-6-6-6-6-6-6-6
G-4-4-4-4-4-4-4-4-9-9-9-9-9-9-9-9-6-6-6-6-6-6-6-6
B-2-2-2-2-2-2-2-2-7-7-7-7-7-7-7-7-4-4-4-4-4-4-4-4
E------------------------------------------------

E------------------------------------------------
A------------------------------------------------
D------------------------------------------------
G-6-6-6-6-6-6-6-6--------------------------------
B-6-6-6-6-6-6-6-6--------------------------------
E-4-4-4-4-4-4-4-4--------------------------------

Then the 'going out with radio' part

E--------------------------------------
A--------------------------------------
D-5-5-5-5-5-5-5-5-5/4-4----------------
G-5-5-5-5-5-5-5-5-5/4-4-4-4-4-4-4-4-4-4
B-3-3-3-3-3-3-3-3-3/2-2-4-4-4-4-4-4-4-4
E-----------------------2-2-2-2-2-2-2-2




MANKIND
=======

Pearl Jam - No Code
Track 11

This represents our interpretation of the original artist's work, to be used for personal or

educational use only.

Transcibed by Matt Forth.
If you add to this or fix any mistakes, please send us a copy.
matt@gil.com.au
(Please email if you are a drummer / bass guitarist near Brisbane interested in jammin'!!!!)


INTRO / CHORUS:

E|----------------|----------------|----------------|
B|----------------|----------------|----------------|
G|--------9-------|6---------------|--------9-------|
D|9-------9-------|6-------6-------|9-------9-------|
A|9-------7-------|4-------6-------|9-------7-------|
E|7---------------|--------4-------|7---------------|
  .   .   .   .    .   .   .   .    .   .   .   .

E|----------------|
B|----------------|
G|6---------------|
D|6---6-----------|
A|4---6-----------|
E|----4-----------|
  .   .   .   .


VERSE:

E|----------------|----------------|
B|----------------|----------------|
G|5---------------|----------------|
D|5---------------|----5-----------|
A|3---------------|----5-----------|
E|----------------|----3-----------|
  .   .   .   .    .   .   .   .


INTRO

VERSE 1
You'll be going out with radio
going out with disco
going out with bacchanal

I'll be going out with telephone
going out alone
to the radar zone


CHORUS
I'ts all just inadvertant imitation and I don't mean mine
It's all across this nation
It's all just inadvertant simulation a patterin in all mankind
What's got the whole world faking it.


VERSE 2
I'll be playing with my magazine
using up my listerine
like ovaltine

You'll be dripping in your battleship
for the latest trip
for the latest dream

CHORUS

Around The Bend

VERSE

E|----------------|----------------|
B|7-------7---7---|5---2---5---3---|
G|6-------6---6---|4---1---4---2---|
D|----------------|----------------|
A|----------------|----------------|
E|----------------|----------------|


"CHORUS"

E|----------------|----------------|
B|3-----3-5---5-3-|--3-------------|
G|2-----2-4---4-2-|--2-------------|
D|----------------|----------------|
A|----------------|----------------|
E|----------------|----------------|



VERSE 1:

I am wishing you a well
Wind at peace within your cell
covers up I cast you off
I'll be watching as you breathe
I sit still you move I send

(chrous) You off around the bend


VERSE 2:

I hold your head deep in my arms
My fingertips they cover your eyes
Off you dream my little child
There's a sun around around

(chorus) There's a sun around the bend


VERSE 3:

All the evenings close like this
All these moments that I've missed
Please forgive me wont you dear
Please forgive and let me share

(chorus) With you around the bend


VERSE 4:

You're an angel when you sleep
How I want your soul to keep

(chorus) On and on around the bend     
Добавлено: 18.08.2013
Другие материалы по этой песне:
  • Аккорды и текст

Страница создана 13.08.2013
http://primanota.ru/pearl-jam/no-code-chords.htm
Привет, Гость.
Предлагаем пройти революционный курс по гитаре.
Подарок от PrimaNota.Ru, забирай!