PrimaNota.ru - самый крупный в мире бесплатный архив песенных текстов, аккордов, табулатур и нот


Pearl Jam - Unthough Know - бас-таба, видео

Регистрация Запомнить меня
Войти через:  Facebook Google Twitter Vk Yandex Mail.ru

Pearl Jam - Unthough Know - бас-таба, видео

Печатать
Просмотров: 60
Pearl Jam
Unthought known

[1:21]
G----------------------------------------------------------------|
D----------------------------------------------------------------|
A-8-8-8-8-8-8-8-/-5-5-5-5-5-5-5/-3-3-3-3-3-3-3-/-7-7-7-7-7-7-7-7-|
E----------------------------------------------------------------|

G-----------------------------------------------------------------|
D-----------------------------------------------------------------| x3
A-8-8-8-8-8-8-8-/-5-5-5-5-5-5-5-/-3-3-3-3-3-3-3-3-3-3-3-3-3-3-3-3-|
E-----------------------------------------------------------------|

G-------------------------------------------------------------|
D-------------------------------------------------------------|
A-5-5-5-5-5-5-5-----------------3-3-3-3-3-3-3-----------------|
E---------------1-1-1-1-1-1-1-1---------------3-3-3-3-3-3-3-3-|

G---------------------------------------------------------------------------|
D---------------------------------------------------------------------------|
A-5-5-5-5-5-7-7-8-8-8-8-8-8-8-8-10---12-10-10-10-10-10-10-3-3-3-3-3-3-3-3-3-|
E---------------------------------------------------------------------------|

G-------------------------------------------------------------    --------------------------|
D-------------------------------------------------------------    --------------------------|
A-5-5-5-5-5-5-5-----------------3-3-3-3-3-3-3----------------- x3 -/10-10-10-10-10-10-10-10-|
E---------------1-1-1-1-1-1-1-1---------------3-3-3-3-3-3-3-3-    --------------------------|

G----------------------------------------------------------------|
D----------------------------------------------------------------|
A-8-8-8-8-8-8-8-/-5-5-5-5-5-5-5/-3-3-3-3-3-3-3-/-7-7-7-7-7-7-7-7-|
E----------------------------------------------------------------|

G--------------------------------------------------------------------|
D--------------------------------------------------------------------|
A-8-8-8-8-8-8-8-/-5-5-5-5-5-5-5-/-3-3-3-3-3-3-3-3-3-3-3-3-3-3-3-3-8~-|
E--------------------------------------------------------------------|

Rest

[2:52]
G-----------------------------------------------------------------|
D-----------------------------------------------------------------|
A-8-8-8-8-8-8-8-/-5-5-5-5-5-5-5-/-3-3-3-3-3-3-3-3-0-3-3-3-3-3-3-3-|
E-----------------------------------------------------------------|

G----------------------------------------------------------------|
D----------------------------------------------------------------|
A-8-8-8-8-8-8-8-/-5-5-5-5-5-5-5/-3-3-3-3-3-3-3-/-7-7-7-7-7-7-7-7-|
E----------------------------------------------------------------|

G-----------------------------------------------------------------|
D-----------------------------------------------------------------|
A-8-8-8-8-8-8-8-/-5-5-5-5-5-5-5-/-3-3-3-3-3-3-3-3-0-3-3-3-3-3-3-3-|
E-----------------------------------------------------------------|

G-----------------------------------------------------------------|
D-----------------------------------------------------------------|
A-8-8-8-8-8-8-8-/-5-5-5-5-5-5-5-/-3-3-3-3-3-3-3-3-3-3-3-3-3-3-3-3-|
E-----------------------------------------------------------------|

G--------------------------------------------------------------------|
D--------------------------------------------------------------------|
A-8-8-8-8-8-8-8-/-5-5-5-5-5-5-5-/-3-3-3-3-3-3-3-3-0-3-3-3-3-3-3-3-8~-|
E--------------------------------------------------------------------|

Rest

By: ManuelJR-CR
Добавлено: 02.12.2013
Другие материалы по этой песне:
  • Аккорды и текст

Страница создана 02.12.2013
http://primanota.ru/pearl-jam/unthough-know-chords.htm
Привет, Гость.
Предлагаем пройти революционный курс по гитаре.
Подарок от PrimaNota.Ru, забирай!