PrimaNota.ru - самый крупный в мире бесплатный архив песенных текстов, аккордов, табулатур и нот


Patti Smith - Jubilee - текст песни, таба, видео

Регистрация Запомнить меня
Войти через:  Facebook Google Twitter Vk Yandex Mail.ru

Patti Smith - Jubilee - текст песни, таба, видео

Печатать
Просмотров: 112



                               D  A  E
e|---0-0--------------0---0----2--0--0
B|-------3-0-------------------3--2--0
G|-----------0-2~-0------------2--2--1
D|-----------------------------0--2--2
A|-----------------------------0--0--2
E|-0----------------0---0---0--0--0--0

                             D   E
e|-0-0--------------0---0----2---0
B|-----3-0-------------------3---0
G|---------0-2~-0------------2---1
D|---------------------------0---2
A|---------------------------0---2
E|----------------0---0---0--0---0

the rest of the song continues with differet combinations of
these 3 chords D A E

for some questions add me on msn or send me an e-mail
cicciobello12@hotmail.com

Добавлено: 23.02.2014
Другие материалы по этой песне:
  • Аккорды и текст

Страница создана 12.06.2012
http://primanota.ru/patti-smith/jubilee-chords.htm
Привет, Гость.
Предлагаем пройти революционный курс по гитаре.
Подарок от PrimaNota.Ru, забирай!