PrimaNota.ru - самый крупный в мире бесплатный архив песенных текстов, аккордов, табулатур и нот


Patsy Cline - Crazy 2 - бас-таба, видео

Регистрация Запомнить меня
Войти через:  Facebook Google Twitter Vk Yandex Mail.ru

Patsy Cline - Crazy 2 - бас-таба, видео

Печатать
Просмотров: 108
Уроки эстрадного вокала в Санкт-Петербурге


Crazy.btab
Written by - Willie Nelson
As performed by Patsy Cline (in Bb).
Transcribed by: Demarest
This is basicly it.

. = Staccato Note (skip feel)



INTRO
|---|---------------------|----0--3--5--3--0--|------------2---------|
|---|-----0--3------------|-------------------|--1---0---------3--0--| 4
|-R-|-1.--------1-2-3-4-5-|-6.----------------|----------------------|
|---|---------------------|-------------------|----------------------|

|----------------------|----------------------|----------------------|
|--------5--3----------|--------0---3---------|------------0-------0-| 7
|-3.-----------------0-|-1.-------------------|---------2------2.----|
|---------------1-3----|-------------------4--|-3.-------------------|
                           Crazy,              I'm crazy for feelin'

|---------0----------0-|----------------------|----------------------|
|-------1-------1.-----|----------5-----------|----------------------| 10
|-3.-------------------|-3.-----3-------------|-------0---3----0---3-|
|----------------------|-----------------3----|-1.-------------------|
 so lonely                                      I'm crazy, 

|----------------------|----------------------|----------------------|
|----------------------|----------------------|----------------------| 13
|--------0--3------0-3-|-1.-----1-2.-----2----|-3.-----------------0-|
|-1.-------------------|----------------------|-------3-1-----1-3----|
 crazy for feelin; so blue

|----------------------|----------------------|------------0-------0-|
|---------0--3---------|------------0-------0-|--------1-------1-----| 16
|-1.-------------------|--------2--------2----|--3.------------------|
|------------------4---|-3.-------------------|----------------------|
 I      knew   you'd    love  me as long as you wanted

|---------------------|-----------------------|----------------------|
|-----------5---------|-----------------------|----------------------| 19
|-3.-----3------------|---------0--3----0--3--|---------0--3----0--3-|
|------------------3--|-1.--------------------|-1.-------------------|
              and then someday,   you'd leave me for somebody new
              
|---------------------|-----------------------|-----0.---5-3---0.--3-|
|---------------------|-----------0---------0-|-1--------------------| 22
|-1.-----1-3.------3--|-4.-----4-------1-3----|----------------------|
|---------------------|-----------------------|----------------------|
  Worry,   why    do    I  let  myself        worry   

|----0.---5-3---0.--3-|-----------------------|----------------------|
|-1-------------------|-----0.---5-3----0.--3-|----------------------| 25
|---------------------|-1---------------------|--1-----0-----1-----2-|
|---------------------|-----------------------|----------------------|

|----------2-0------0-|----------2---0------0-|----------------------|
|-----2.--------2.----|-----2.---------2.-----|----------------------| 28
|-3-------------------|-3---------------------|-----0.----5-3---0--3-|
|---------------------|-----------------------|-1--------------------|
Wond'rin,       what in the world did I do

|---------------------|----------------------|-----------------------|
|---------------------|--------0---3---------|----------0----------0-| 31
|----0.-----5-3-----0-|--1.------------------|-------2-----2.--------|
|-1-------------1-3---|--------------------4-|-3.--------------------|
                        Crazy,     for   thinking that my love could 

|-----------0-------0-|----------0-----------|-----------------------|
|------1-------1------|------1-------------0-|-1.-------1-0.-------0-| 34
|-3.------------------|-3.-------------1-3---|-----------------------|
|---------------------|----------------------|-----------------------|
 you                                          I'm crazy for tryin


|---------------------|----------------------|-----------------------|
|-------------------0-|----------5-3---------|-------0-3-4-----------| 37
|-3.------3--2--------|-3.-------------------|-1__-----------------1-|
|---------------------|-------------------1--|----------------2-4----|
and crazy for cryin, and I'm crazy for lovin' you______

|---------------------|----------------------|----------1---------1--|
|---------1--4--------|---------1----------1-|-------2------2.-------| 40
|-1.----------------0-|-------3------3.------|-4.--------------------|
|---------------------|-4.-------------------|-----------------------|
Crazy,               for thinking that my love could hold you

|-----------1---------|----------------------|-----------------------|
|--------2----------1-|-2.----2----1.----1---|--------------------1--| 43
|-4.-----------2-4----|----------------------|-4.------4--3----------|
|---------------------|----------------------|-----------------------|       
                                   I'm crazy for tryin' and crazy for 

|---|---|-----------------------------|
|---|---|-----------------------------|
|-4-|---|-----------------------------|
|---|-4-|---------------------------2-|
cryin'   and I'm crazy for lovin' you

|-----------1----------------|-----1----6--9------|---|---|
|-----1.------4--------------|--------------------|---|---|
|-2--------------1-2-3-4-5-6-|-7------------------|-2-|-R-|
|----------------------------|------------------6-|---|---|



Добавлено: 17.12.2013
Другие материалы по этой песне:
  • Аккорды и текст

Страница создана 17.12.2013
http://primanota.ru/patsy-cline/crazy-2-chords.htm
Привет, Гость.
Предлагаем пройти революционный курс по гитаре.
Подарок от PrimaNota.Ru, забирай!