PrimaNota.ru - самый крупный в мире бесплатный архив песенных текстов, аккордов, табулатур и нот


Patrick James - Golden Sun - таба, видео

Регистрация Запомнить меня
Войти через:  Facebook Google Twitter Vk Yandex Mail.ru

Patrick James - Golden Sun - таба, видео

Печатать
Просмотров: 225
First TAB I'm pretty sure its all correct. So Enjoy!!

Standard Tuning
CAPO 3

INTRO + VERSE 1 (TAB)

e|------------------------0-----------------------0----------3---------------|
B|------------------------0-----------------------1----------0---------------|
G|---2/4---2p0------------0-----0---------0-------0----------0---------------|
D|---------------2--------2-------------0----0----2----------0---------------|
A|------------------------2--------0h2------------3----------2---------------|
E|-------------------0----0-----------------------------3--------------------|

Repeat as necessary for intro and verse 1

CHORUS

G                 C    
I've been through money
G                  C               
It's come and it's gone
G                               C
But we never strayed to far from the cold
G             C
To find your freedom
G        C
Life goes on
G                     C
To watch our children grow
           D  C
And they'll follow

Em C G  x2

VERSE 2

           Em
I never wrote to
          C G
Dead ones I knew
                 Em
They seemed so distant
            C    G
That I was scared to
            Em
But we'd remember
                   C   G
All the times that we shared
           Em
And I can tell you 
              C     G
That I learnt first hand 


CHORUS

G                 C    
I've been through money
G                  C               
It's come and it's gone
G                               C
But we never strayed to far from the cold
G             C
To find your freedom
G        C
Life goes on
G                     C
To watch our children grow
           D  C
And they'll follow

SOLO

Em C G

Play those chords as if it was a verse


BRIDGE

Am                        Em
Time don't want to make us change

e|---------------------|
B|---------------------|
G|---------------------|
D|--2---0--------------|
A|----------3---2---0--|
E|---------------------|

Am                         D
Time don't want to make us change

e|------------|
B|------------|
G|---2p0------|
D|------------|
A|------------|
E|------------|

C
Change


FINAL CHORUS

G                 C    
I've been through money
G                  C               
It's come and it's gone
G                               C
But we never strayed to far from the cold
G             C
To find your freedom
G        Em
Life goes on
G                     C
To watch our children grow
           D  C
And they'll follow
D C
Follow
D C
Follow


FINAL RIFF

e|------------------------0---|
B|------------------------0---|
G|---2/4---2p0------------0---|
D|---------------2--------2---|
A|------------------------2---|
E|-------------------0----0---|
Добавлено: 14.11.2013
Другие материалы по этой песне:
  • Аккорды и текст

Страница создана 14.11.2013
http://primanota.ru/patrick-james/golden-sun-chords.htm
Привет, Гость.
Предлагаем пройти революционный курс по гитаре.
Подарок от PrimaNota.Ru, забирай!