PrimaNota.ru - самый крупный в мире бесплатный архив песенных текстов, аккордов, табулатур и нот


Paramore - Thats What You Get Half-step Down - аккорды и текст, видео

Регистрация Запомнить меня
Войти через:  Facebook Google Twitter Vk Yandex Mail.ru

Paramore - Thats What You Get Half-step Down - аккорды и текст, видео

Печатать
Просмотров: 142
Thats What You Get Half-step Down
Paramore
Rhythm Guitar

Intro

e|--------------------------------------------------------------------------------------------|
B|--------------------------------------------------------------------------------------------|
G|--------------------------------------------------------------------------------------------| x 2
D|-5-5-5-x-x-x-x-------5-5-5-x-x-x-x-------7-7-7-x-x-x-x--------9-9-9-------4-----------------|
A|-5-5-5-x-x-x-x-------5-5-5-x-x-x-x-------7-7-7-x-x-x-x--------9-9-9-------4-----------------|
E|-3-3-3-x-x-x-x-------3-3-3-x-x-x-x-------5-5-5-x-x-x-x--------7-7-7-------2-----------------|


Verse

|-------------------------------Palm-muted-----------------------------------|

e|---------------------------------------------------------------------------|
B|---------------------------------------------------------------------------|
G|---------------------------------------------------------------------------| x 2
D|-555----------555----------777----------999---------4----------------------| 
A|-555----------555----------777----------999---------4----------------------|
E|-333----------333----------555----------777---------2----------------------|


e|---------------------------------------------------------------------------|
B|---------------------------------------------------------------------------|
G|---------------------------------------------------------------------------| x 1
D|-555-xxxx-------555-xxxx-------777-xxxx--------999-------4-----------------|
A|-555-xxxx-------555-xxxx-------777-xxxx--------999-------4-----------------|
E|-333-xxxx-------333-xxxx-------555-xxxx--------777-------2-----------------|


|-------------------------------Palm-muted-----------------------------------|

e|---------------------------------------------------------------------------|
B|---------------------------------------------------------------------------|
G|---------------------------------------------------------------------------| x 1
D|-555----------555----------777----------999---------4----------------------| 
A|-555----------555----------777----------999---------4----------------------|
E|-333----------333----------555----------777---------2----------------------|


|-----------------Palm-muted----------------|

e|----------------------------------------------------------------------------|
B|----------------------------------------------------------------------------|
G|----------------------------------------------------------------------------| x 1
D|-555----------555----------777----------999---------12----------------------| 
A|-555----------555----------777----------999---------12----------------------|
E|-333----------333----------555----------777---------10----------------------|


Chorus

e|----------------------------------------------------------------------------------------------|
B|----------------------------------------------------------------------------------------------|
G|----------------------------------------------------------------------------------------------| x 1
D|-5-5-5-5-5-5-5-5----12-12-12-12-12-12-12-12------9-9-9-9-9-9-9-9--------7-7-7-7-7-7-7-7-------|
A|-5-5-5-5-5-5-5-5----12-12-12-10-12-12-12-12------9-9-9-9-9-9-9-7--------7-7-7-7-7-7-7-7-------|
E|-3-3-3-3-3-3-3-3----10-10-10-10-10-10-10-10------7-7-7-7-7-7-7-7--------5-5-5-5-5-5-5-5-------|


e|----------------------------------------------------------------------------------------------|
B|----------------------------------------------------------------------------------------------|
G|----------------------------------------------------------------------------------------------| x 1
D|-5-5-5-5-5-5-5-5----12-12-12-12-12-12-12-12------7-7-7-7-7-7-7-7--------7-7-7-7-7-7-7-7-------|
A|-5-5-5-5-5-5-5-5----12-12-12-10-12-12-12-12------7-7-7-7-7-7-7-7--------7-7-7-7-7-7-7-7-------|
E|-3-3-3-3-3-3-3-3----10-10-10-10-10-10-10-10------5-5-5-5-5-5-5-5--------5-5-5-5-5-5-5-5-------|


e|--------------------------------------------------------------------------------------------------|
B|--------------------------------------------------------------------------------------------------|
G|--------------------------------------------------------------------------------------------------|
D|---9-9-9-9-9-9-9-9-------7-7-7-7-7-7-7-7-------9-9-9-9-9-9-9-9--------7-7-7-7-7-7-7-7-------------|
A|---9-9-9-9-9-9-9-9-------7-7-7-7-7-7-7-7-------9-9-9-9-9-9-9-9--------7-7-7-7-7-7-7-7-------------|
E|---7-7-7-7-7-7-7-7-------5-5-5-5-5-5-5-5-------7-7-7-7-7-7-7-7--------5-5-5-5-5-5-5-5-------------|


e|----------------------------------------------------------------------------------------------|
B|----------------------------------------------------------------------------------------------|
G|----------------------------------------------------------------------------------------------| x 1
D|-5-5-5-5-5-5-5-5----12-12-12-12-12-12-12-12------7-7-7-7-7-7-7-7------7-7-7-7-7-7-7-7---------|
A|-5-5-5-5-5-5-5-5----12-12-12-10-12-12-12-12------7-7-7-7-7-7-7-7------7-7-7-7-7-7-7-7---------|
E|-3-3-3-3-3-3-3-3----10-10-10-10-10-10-10-10------5-5-5-5-5-5-5-5------5-5-5-5-5-5-5-5---------|

Pre-Verse

e|---------------------------------------------------------------------------|
B|---------------------------------------------------------------------------|
G|---------------------------------------------------------------------------| x 2
D|-555-xxxx-------555-xxxx-------777-xxxx--------999-------4-----------------|
A|-555-xxxx-------555-xxxx-------777-xxxx--------999-------4-----------------|
E|-333-xxxx-------333-xxxx-------555-xxxx--------777-------2-----------------|

Verse 2

|-------------------------------Palm-muted-----------------------------------|

e|---------------------------------------------------------------------------|
B|---------------------------------------------------------------------------|
G|---------------------------------------------------------------------------| x 3
D|-555----------555----------777----------999---------4----------------------| 
A|-555----------555----------777----------999---------4----------------------|
E|-333----------333----------555----------777---------2----------------------|


|-----------------Palm-muted----------------|

e|----------------------------------------------------------------------------|
B|----------------------------------------------------------------------------|
G|----------------------------------------------------------------------------| x 1
D|-555----------555----------777----------999---------12----------------------| 
A|-555----------555----------777----------999---------12----------------------|
E|-333----------333----------555----------777---------10----------------------|


Chorus 2


e|----------------------------------------------------------------------------------------------|
B|----------------------------------------------------------------------------------------------|
G|----------------------------------------------------------------------------------------------| x 1
D|---5-5-5-5-5-5-5-5-------12-12-12-12-12-12-12-12---------9-9-9-9-9-9-9-9-----7-7-7-7-7-7-7-7--|
A|---5-5-5-5-5-5-5-5-------12-12-12-10-12-12-12-12---------9-9-9-9-9-9-9-7-----7-7-7-7-7-7-7-7--|
E|---3-3-3-3-3-3-3-3-------10-10-10-10-10-10-10-10---------7-7-7-7-7-7-7-7-----5-5-5-5-5-5-5-5--|


e|----------------------------------------------------------------------------------------------|
B|----------------------------------------------------------------------------------------------|
G|----------------------------------------------------------------------------------------------| x 1
D|---5-5-5-5-5-5-5-5-------12-12-12-12-12-12-12-12---------7-7-7-7-7-7-7-7-----7-7-7-7-7-7-7-7--|
A|---5-5-5-5-5-5-5-5-------12-12-12-10-12-12-12-12---------7-7-7-7-7-7-7-7-----7-7-7-7-7-7-7-7--|
E|---3-3-3-3-3-3-3-3-------10-10-10-10-10-10-10-10---------5-5-5-5-5-5-5-5-----5-5-5-5-5-5-5-5--|


e|--------------------------------------------------------------------------------------------------|
B|--------------------------------------------------------------------------------------------------|
G|--------------------------------------------------------------------------------------------------|
D|---9-9-9-9-9-9-9-9-------7-7-7-7-7-7-7-7-------9-9-9-9-9-9-9-9--------7-7-7-7-7-7-7-7-------------|
A|---9-9-9-9-9-9-9-9-------7-7-7-7-7-7-7-7-------9-9-9-9-9-9-9-9--------7-7-7-7-7-7-7-7-------------|
E|---7-7-7-7-7-7-7-7-------5-5-5-5-5-5-5-5-------7-7-7-7-7-7-7-7--------5-5-5-5-5-5-5-5-------------|


e|----------------------------------------------------------------------------------------------|
B|----------------------------------------------------------------------------------------------|
G|----------------------------------------------------------------------------------------------| x 1
D|---5-5-5-5-5-5-5-5-------12-12-12-12-12-12-12-12---------7-7-7-7-7-7-7-7-----7-7-7-7-7-7-7-7--|
A|---5-5-5-5-5-5-5-5-------12-12-12-10-12-12-12-12---------7-7-7-7-7-7-7-7-----7-7-7-7-7-7-7-7--|
E|---3-3-3-3-3-3-3-3-------10-10-10-10-10-10-10-10---------5-5-5-5-5-5-5-5-----5-5-5-5-5-5-5-5--|


Bridge


|-------------------------------Palm-muted-----------------------------------|

e|---------------------------------------------------------------------------|
B|---------------------------------------------------------------------------|
G|---------------------------------------------------------------------------| x 4
D|-555----------555----------777----------999---------4----------------------| 
A|-555----------555----------777----------999---------4----------------------|
E|-333----------333----------555----------777---------2----------------------|


e|---------------------------------------------------------------------------|
B|---------------------------------------------------------------------------|
G|---------------------------------------------------------------------------| x 2
D|-555-xxxx-------555-xxxx-------777-xxxx--------999-------4-----------------|
A|-555-xxxx-------555-xxxx-------777-xxxx--------999-------4-----------------|
E|-333-xxxx-------333-xxxx-------555-xxxx--------777-------2-----------------|


Pre-Chorus

(Pure-singing, That's What You Get when you let your heart win...)


|----Palm-muted-----|

e|---------------------------------------------------------------|
B|---------------------------------------------------------------|
G|---------------------------------------------------------------|
D|---7-7-7-7-7-7-7-7-----------7-7-7-7-7-7-7-7-------------------|
A|---7-7-7-7-7-7-7-7-----------7-7-7-7-7-7-7-7-------------------|
E|---5-5-5-5-5-5-5-5-----------5-5-5-5-5-5-5-5-------------------|


Final Chorus


e|----------------------------------------------------------------------------------------------|
B|----------------------------------------------------------------------------------------------|
G|----------------------------------------------------------------------------------------------| x 1
D|---5-5-5-5-5-5-5-5-------12-12-12-12-12-12-12-12---------9-9-9-9-9-9-9-9-----7-7-7-7-7-7-7-7--|
A|---5-5-5-5-5-5-5-5-------12-12-12-10-12-12-12-12---------9-9-9-9-9-9-9-7-----7-7-7-7-7-7-7-7--|
E|---3-3-3-3-3-3-3-3-------10-10-10-10-10-10-10-10---------7-7-7-7-7-7-7-7-----5-5-5-5-5-5-5-5--|


e|----------------------------------------------------------------------------------------------|
B|----------------------------------------------------------------------------------------------|
G|----------------------------------------------------------------------------------------------| x 1
D|---5-5-5-5-5-5-5-5-------12-12-12-12-12-12-12-12---------7-7-7-7-7-7-7-7-----7-7-7-7-7-7-7-7--|
A|---5-5-5-5-5-5-5-5-------12-12-12-10-12-12-12-12---------7-7-7-7-7-7-7-7-----7-7-7-7-7-7-7-7--|
E|---3-3-3-3-3-3-3-3-------10-10-10-10-10-10-10-10---------5-5-5-5-5-5-5-5-----5-5-5-5-5-5-5-5--|


e|--------------------------------------------------------------------------------------------------|
B|--------------------------------------------------------------------------------------------------|
G|--------------------------------------------------------------------------------------------------|
D|---9-9-9-9-9-9-9-9-------7-7-7-7-7-7-7-7-------9-9-9-9-9-9-9-9--------7-7-7-7-7-7-7-7-------------|
A|---9-9-9-9-9-9-9-9-------7-7-7-7-7-7-7-7-------9-9-9-9-9-9-9-9--------7-7-7-7-7-7-7-7-------------|
E|---7-7-7-7-7-7-7-7-------5-5-5-5-5-5-5-5-------7-7-7-7-7-7-7-7--------5-5-5-5-5-5-5-5-------------|


e|----------------------------------------------------------------------------------------------|
B|----------------------------------------------------------------------------------------------|
G|----------------------------------------------------------------------------------------------| x 1
D|---5-5-5-5-5-5-5-5-------12-12-12-12-12-12-12-12---------7-7-7-7-7-7-7-7-----7-7-7-7-7-7-7-7--|
A|---5-5-5-5-5-5-5-5-------12-12-12-10-12-12-12-12---------7-7-7-7-7-7-7-7-----7-7-7-7-7-7-7-7--|
E|---3-3-3-3-3-3-3-3-------10-10-10-10-10-10-10-10---------5-5-5-5-5-5-5-5-----5-5-5-5-5-5-5-5--|


Ending

e|---------------------------------------------------------------------------|
B|---------------------------------------------------------------------------|
G|---------------------------------------------------------------------------|
D|----5-5-5-x-x-x-x-------5-5-5-x-x-x-x----------------12--------------------|
A|----5-5-5-x-x-x-x-------5-5-5-x-x-x-x----------------12--------------------|
E|----3-3-3-x-x-x-x-------3-3-3-x-x-x-x----------------10--------------------|
Добавлено: 21.05.2015
Вам также может быть интересно:
Другие материалы по этой песне:
  • Аккорды и текст

Страница создана 21.05.2015
http://primanota.ru/paramore/thats-what-you-get-half-step-down-chords.htm
Привет, Гость.
Предлагаем пройти революционный курс по гитаре.
Подарок от PrimaNota.Ru, забирай!