PrimaNota.ru - самый крупный в мире бесплатный архив песенных текстов, аккордов, табулатур и нот


Paramore - Miracle Outro I Asked For Mercy - таба, видео

Регистрация Запомнить меня
Войти через:  Facebook Google Twitter Vk Yandex Mail.ru

Paramore - Miracle Outro I Asked For Mercy - таба, видео

Печатать
Просмотров: 121
-------------------------------------------------------------------------------
              Miracle Outro ("I Asked For Mercy") - Paramore
-------------------------------------------------------------------------------
Tabbed by: Dominic Lehner
E-mail: dominic.lehner@aon.at

Tuning: Drop D

Note: There already exist tabs for this, but they are not exactly right.
So I decided to share the tabs which Josh played 100% like this.


Josh (Lead Guitar) - Clean:

e|--11------11--10------10----------------------|
B|--------------------------13------13--11------|
G|------12----------12----------12----------12--|
D|----------------------------------------------|
A|----------------------------------------------|
E|----------------------------------------------|

e|--11------11--10------10------------------13--|
B|--------------------------13------13--11------|
G|------12----------12----------12--------------|
D|----------------------------------------------|
A|----------------------------------------------|
E|----------------------------------------------|

At ~2:04 start with Distortion and play this:

e|--11------11--10------10----------------------|
B|--------------------------13------13--11------|
G|------12----------12----------12----------12--|
D|----------------------------------------------|
A|----------------------------------------------|
E|----------------------------------------------|

e|--11------11--10------10------------------13--|
B|--------------------------13------13--11------|
G|------12----------12----------12--------------|
D|----------------------------------------------|
A|----------------------------------------------|
E|----------------------------------------------|

e|--11------11--10------10----------------------|
B|--------------------------13------13--11------|
G|------12----------12----------12----------12--|
D|----------------------------------------------|
A|----------------------------------------------|
E|----------------------------------------------|

e|--11------11--10------10-------------------------------------------------------|
B|--------------------------13------13-13-13-13-13-13-13-13-13-13-13-13-13-13-13-|
G|------12----------12----------12-----------------------------------------------|
D|-------------------------------------------------------------------------------|
A|-------------------------------------------------------------------------------|
E|-------------------------------------------------------------------------------|

Play with distortion until the last time - then Josh plays it once clean before
ending the outro.

If there are any questions just ask them ;)

************************************

| /   slide up
| \   slide down
| h   hammer-on
| p   pull-off
| ~   vibrato
| +   harmonic
| x   Mute note
| b   Bend
| pb  Pre-bend
| br  Bend release
| pbr Pre-bend release
| brb Bend release bend

************************************
Добавлено: 21.05.2015
Другие материалы по этой песне:
  • Аккорды и текст

Страница создана 21.05.2015
http://primanota.ru/paramore/miracle-outro-i-asked-for-mercy-chords.htm
Привет, Гость.
Предлагаем пройти революционный курс по гитаре.
Подарок от PrimaNota.Ru, забирай!