PrimaNota.ru - самый крупный в мире бесплатный архив песенных текстов, аккордов, табулатур и нот


Papa Roach - Devil - таба, видео

Регистрация Запомнить меня
Войти через:  Facebook Google Twitter Vk Yandex Mail.ru

Papa Roach - Devil - таба, видео

Печатать
Просмотров: 395
Papa Roach: Devil

Transcribed by: mysticguitar77

YouTube Channel: https://www.youtube.com/user/MysticGuitar77

Date last modified: January 30, 2015

Tuning: Drop C (C,G,C,F,A,D)

Riff 1 (light distortion w/ slight delay, let all chords ring out)
D|------------------------------------------|
A|-5~--------6~---6~---5~--------10~---8~---|
F|-5~--------5~---7~---5~--------9~----9~---|
C|-7~--------7~---7~---7~--------7~----7~---|
G|------------------------------------------|
C|------------------------------------------|

Play Riff 1 x3   "Would I go touch the flame..."

Riff 2   "Or will I run for the exit..." (comes in after Riff 1 gets played twice)
D|--------------------------------------------------------------|
A|--------------------------------------------------------------|
F|--------------------------------------------------------------|
C|--------------------------------------------------------------|
G|-------------7\-------------5\--------------------------------|
C|-7-7-7-5-7-7----7-7-7-5-7-7----7-7-7-5-7-7-10\-7-7-7-5-7-7-9\-|
   * * * * * * *  * * * * * * *  * * * * * * *   * * * * * * *

D|----------------------------------------------------------------|
A|----------------------------------------------------------------|
F|----------------------------------------------------------------|
C|----------------------------------------------------------------|
G|-------------7\-------------5\----------------------------------|
C|-7-7-7-5-7-7----7-7-7-5-7-7----7-7-7-5-7-7-10\-7-7-7-10-9-9-9-9-|
   * * * * * * *  * * * * * * *  * * * * * * *   * * * *  * * * *

Riff 3   "And my perfection is all I see..."
D|--------------------------------|
A|--------------------------------|
F|-----10'--9'--7'--5'------4'----|
C|--------------------------------|   ' = tremolo pick
G|--------------------------------|
C|-0~-----------------------------|

Riff 4   "I don't wanna finish what we started..."
D|--------------------------------------------------------------------|
A|--------------------------------------------------------------------|
F|--------------------------------------------------------------------|
C|-7-7--7-7-7-7-10--10-10-10-10-2-2-2-3-3--3-3-3-3-3-/5--5-5-5-5--3-5-| x3
G|-7-7--7-7-7-7-10--10-10-10-10-2-2-2-3-3--3-3-3-3-3-/5--5-5-5-5--3-5-|
C|-7-7--7-7-7-7-10--10-10-10-10-2-2-2-3-3--3-3-3-3-3-/5--5-5-5-5--3-5-|

D|----------------------------------------------------------------|
A|----------------------------------------------------------------|
F|----------------------------------------------------------------|
C|-7-7--7-7-7-7-5--5-5-5-5-5-5-5-0-0--0-0-0-0-0-0-0-3-3-3-3/5-5-5-|
G|-7-7--7-7-7-7-5--5-5-5-5-5-5-5-0-0--0-0-0-0-0-0-0-3-3-3-3/5-5-5-|
C|-7-7--7-7-7-7-5--5-5-5-5-5-5-5-0-0--0-0-0-0-0-0-0-3-3-3-3/5-5-5-|

Fill 1 (light distortion)
D|--------------------|
A|-5~---------6~---6~-|
F|-5~---------5~---7~-|
C|-7~---------7~---7~-|
G|--------------------|
C|--------------------|

Play Riff 1 x2   "There's nowhere safe to hide..."
Play Riff 2 x1   "I fought this every night..."
Play Riff 3 x1   "And the devil is all I see..."
Play Riff 4 x1   "I don't wanna finish what we started..."

Riff 5   "I had enough of you..."
D|-------------------------------------------------------------------------|
A|-------------------------------------------------------------------------|
F|-----------------------10-10--10-10--10-10-------------------------------|
C|-10--10-10-10--10-10---x--x---x--x---x--x--7--7-7-7--7-7-7\5-5-5-5-5-5-5-| x2
G|-10--10-10-10--10-10---8--8---8--8---8--8--7--7-7-7--7-7-7\5-5-5-5-5-5-5-|
C|-10--10-10-10--10-10-0-0--0---0--0---0--0--7--7-7-7--7-7-7\5-5-5-5-5-5-5-|

D|--------------------------------------------------------------------|
A|--------------------------------------------------------------------|
F|--------------------------------------------------------------------|
C|-10--10-10-10--10-10-10\5--5-5-5--5-5-5--5-5-5--5-5-5----3-3-3--3-3-|
G|-10--10-10-10--10-10-10\5--5-5-5--5-5-2--2-2-2--2-2-2/3--3-3-3--3-3-|
C|-10--10-10-10--10-10-10\5--5-5-5--5-5-2--2-2-2--2-2-2/3--3-3-3--3-3-|

D|-------------------------------------------------------------------------|
A|-------------------------------------------------------------------------|
F|-----------------------10-10--10-10--10-10-------------------------------|
C|-10--10-10-10--10-10---x--x---x--x---x--x--7--7-7-7--7-7-7\5-5-5-5-5-5-5-|
G|-10--10-10-10--10-10---8--8---8--8---8--8--7--7-7-7--7-7-7\5-5-5-5-5-5-5-|
C|-10--10-10-10--10-10-0-0--0---0--0---0--0--7--7-7-7--7-7-7\5-5-5-5-5-5-5-|

Play Fill 1 x1
Play Riff 4 x1   "I don't wanna finish what we started..."

Enjoy!!

Добавлено: 28.05.2015
Другие материалы по этой песне:
  • Аккорды и текст

Страница создана 28.05.2015
http://primanota.ru/papa-roach/devil-chords.htm
Привет, Гость.
Предлагаем пройти революционный курс по гитаре.
Подарок от PrimaNota.Ru, забирай!