PrimaNota.ru - самый крупный в мире бесплатный архив песенных текстов, аккордов, табулатур и нот


Panda - Procedimientos Para Llegar A Un Comun Acuerdo - текст песни, таба, бас-таба, видео

Регистрация Запомнить меня
Войти через:  Facebook Google Twitter Vk Yandex Mail.ru

Panda - Procedimientos Para Llegar A Un Comun Acuerdo - текст песни, таба, бас-таба, видео

Печатать
Просмотров: 149
[Español]
Bueno, esta es la primera canción que transcribo, es una de las que más me gusta y
que también sea de su agrado, y que encuentren bien mi interpretación de esta canción. Esta
consiste en lo que toca la guitarra I y la II, pero a final agregué el bajo para 
Espero les guste. (:

[English]
Well, this is the first song that i transcribe, is one of the most that I like and i
you like. I really hope this song is good transcribed. This transcription consist what
I and guitar II play's. And in the end, a Bass to enfatize. I hope you liked. And sorry 
my bad english. x)

Tabbed By: Joan Arce.

                           Procedimientos para llegar a un Común Acuerdo
                                              [Panda]

• Estrofa 1

 [Guitarra II]
|-----------------------------------------------------------------------------|
|-----------------------------------------------------------------------------|
|--4-4--3-4-3-4-3-4---1-1--0-1-0-1-0-1----------------------------------------|
|--6-6--6-6-6-6-6-6---2-2--2-2-2-2-2-2----------------------------------------|x3
|--6-6--6-6-6-6-6-6---2-2--2-2-2-2-2-2----------------------------------------|
|-----------------------------------------------------------------------------|

|-----------------------------------------------------------------------------|
|-----------------------------------------------------------------------------|
|--4-4--3-4-3-4-3-4---1-1--0-1-0-7-7-7-7-7------------------------------------|
|--6-6--6-6-6-6-6-6---2-2--2-2-2-9-9-9-9-9------------------------------------|
|--6-6--6-6-6-6-6-6---2-2--2-2-2-9-9-9-9-9------------------------------------|
|-----------------------------------------------------------------------------|

• Coro 1

 [Guitarra I]
|-------------------------------------------------------------------------------|
|-------------------------------------------------------------------------------|
|-------------------------------------------------------------------------------|
|--6-6-6-6--------9-9-9-9--------2-2-2-2--------6-6-6-6---------4-4-4-4---------|x2
|--6-6-6-6--9-9-9-9--2-2-2-2--6-6-6-6--4-4-4-4----------------------------------|
|--4-4-4-4--------7-7-7-7--------0-0-0-0--------4-4-4-4---------2-2-2-2---------|

 [Guitarra II]
|--12-12-12-11-----12-12-12-11-----12-12-12-11------12-12-12-11-----------------|
|--------------------------------------------------------12-----------------12--|
|-----------------13----------------13------------------------------------------|
|-------------------------------------------------------------------------------|
|-------------------------------------------------------------------------------|
|-------------------------------------------------------------------------------|

|--12-12-12-11-----12-12-12-11-----12-12-12-11---------9------------------------|
|--------------------------------------------------------12-12---12-11-12-------|
|-----------------13----------------13------------------------------------------|
|-------------------------------------------------------------------------------|
|-------------------------------------------------------------------------------|
|-------------------------------------------------------------------------------|
 [Repetir 2 veces]

• Estrofa 2 [Igual que la estrofa 1]
• Coro 2 [Igual que el coro 1]

• Interlude

 [Guitarra I]
|------------------------------|
|------------------------------|
|------------------------------|
|--9---4-2--2----9-8-8-8-------| x3
|--9---4-2--2----9-8-8-8-------|
|--7---2-0--0----7-6-6-6-------|

 [Guitarra II]
|----7---7—-7---7---7---7---7---7-----6---6---6---6-----4---4---4---4------------|
|--9---9---9---9---9---9---9---9-----7---7---7---7-----5---5---5---5-------------|
|--------------------------------------------------------------------------------|
|--------------------------------------------------------------------------------|
|--------------------------------------------------------------------------------|
|--------------------------------------------------------------------------------|

|----7---7---7---7-----6---6---6---6-----2---2---2---2-----4---4---4---4---------|
|--9---9---9---9-----7---7---7---7-----4---4---4---4-----5---5---5---5-----------|
|--------------------------------------------------------------------------------|
|--------------------------------------------------------------------------------|
|--------------------------------------------------------------------------------|
|--------------------------------------------------------------------------------|
 [Repetir 3 veces]

• Estrofa 3 [Igual que la estrofa 1]
• Coro 3 [Igual que el coro 1]

• Final

 [Guitarra I]
|--------------------------------------------------------------------------------|
|--------------------------------------------------------------------------------|
|--------------------------------------------------------------------------------|
|--6---6-2-------6---6-2---------------------------------------------------------|
|--6---6-2-------6---6-2---------------------------------------------------------|
|--4---4-0-------4---4-0---------------------------------------------------------|

[Guitarra II]
|----------------9------------------------9--------------------------------------|
|--9---11-12------12-11--9---11-12------12-11--9---------------------------------|
|--------------------------------------------------------------------------------|
|--------------------------------------------------------------------------------|x2
|--------------------------------------------------------------------------------|
|--------------------------------------------------------------------------------|

[Bajo]
|--------------------------------------------------------------------------------|
|--------------------------------------------------------------------------------|
|-----2------2----2------2-------------------------------------------------------|
|--4----4-4----4----4-4----0--2—0-0--2--0--2—0-0--2---4--------------------------|
Добавлено: 17.06.2012
Другие материалы по этой песне:

Страница создана 21.02.2012
http://primanota.ru/panda/procedimientos-para-llegar-a-un-comun-acuerdo-chords.htm
Привет, Гость.
Предлагаем пройти революционный курс по гитаре.
Подарок от PrimaNota.Ru, забирай!