PrimaNota.ru - самый крупный в мире бесплатный архив песенных текстов, аккордов, табулатур и нот


Panda - La Estrategia Perdida - текст песни, таба, видео

Регистрация Запомнить меня
Войти через:  Facebook Google Twitter Vk Yandex Mail.ru

Panda - La Estrategia Perdida - текст песни, таба, видео

Печатать
Просмотров: 155
Esta cancion se la kiero dedicar a la persona mas especial para mi de este
mundo a marifer palma, que la kiero un chingo y que no sabe cuantas ganas
tengo de estar a su lado,te quiero mucho, gracias por ser mi amiga :D
bueno ahi les dejo la cancion.


La estrategia perdida.-

Intro: aquí lleva un intro en teclado o algo asi, pero aki les dejo
       la guitarra que lo acompaña.

----------------------------------------------------------------------|
----------------------------------------------------------------------|
------------------88-888-888-888-8------------------------------------|
-99-999-999-999-9-88-888-888-888-8-66-666-666-666-6-22-222-2-44-444-4-|
-99-999-999-999-9-66-666-666-666-6-66-666-666-666-6-22-222-2-44-444-4-|
-77-777-777-777-7------------------44-444-444-444-4-00-000-0-22-222-2-|


------------------------------------------------------------------------|
------------------------------------------------------------------------|
------------------88-888-888-888-8--------------------------------------|
-99-999-999-999-9-88-888-888-888-8-66-666-666-666-6-22-222-2-44-444-4-9-|
-99-999-999-999-9-66-666-666-666-6-66-666-666-666-6-22-222-2-44-444-4-9-|
-77-777-777-777-7------------------44-444-444-444-4-00-000-0-22-222-2-7-|


Versos:


aquí lleva un punteo que no lo eh sakado.


Precoro:

en donde dice: "perdiendo todos aquellos juegos que"

-----------------|
-----------------|
-----------------|
-99999-8-6666666-|
-99999-8-6666666-|
-77777-6-4444444-|

en donde dice: "Volvería a seder"

--------------------------------------------|
--------------------------------------------|
-------------------------------10-10-10-9-8-|
-999-11-12-999-12-11-999-11-12-10-10-10-9-8-|
-999-11-12-999-12-11-999-11-12-8--8--8--7-6-|
-777-9--10-777-10-9--777-9--10--------------|

Coro:

--------------------------------|
--------------------------------|
--------888888------------------|
-999999-888888--66666-2222-4444-| (x2)
-999999-666666--66666-2222-4444-|
-777777---------44444-0000-2222-|


Versos:


aquí lleva un punteo que no lo eh sakado.


Precoro:

en donde dice: "Confieso tu sueño"

-------------------------------------|
-------------------------------------|
-------------------------------------| (aqui no se si este
-----------------------8--8--8--8--8-|  bien el numero de
---9--9--9--9--9--9--66-66-66-66-66--|  veces pero ahi ustds
-77-77-77-77-77-77-7-----------------|  chekenle y ya)
 .. .. .. .. .. .. . .. .. .. .. ..


-----------------|
-----------------|
-----------------|
-99999-8-6666666-|
-99999-8-6666666-|
-77777-6-4444444-|

-------------------------------------|
-------------------------------------|
-------------------------------------| (aqui no se si este
-----------------------8--8--8--8--8-|  bien el numero de
---9--9--9--9--9--9--66-66-66-66-66--|  veces pero ahi ustds
-77-77-77-77-77-77-7-----------------|  chekenle y ya)
 .. .. .. .. .. .. . .. .. .. .. ..

--------------------------------------------|
--------------------------------------------|
-------------------------------10-10-10-9-8-|
-999-11-12-999-12-11-999-11-12-10-10-10-9-8-|
-999-11-12-999-12-11-999-11-12-8--8--8--7-6-|
-777-9--10-777-10-9--777-9--10--------------|

Coro:

--------------------------------|
--------------------------------|
--------888888------------------|
-999999-888888--66666-2222-4444-| (x2)
-999999-666666--66666-2222-4444-|
-777777---------44444-0000-2222-|

Final:

----------------------------------------------------------------------|
----------------------------------------------------------------------|
------------------88-888-888-888-8------------------------------------|
-99-999-999-999-9-88-888-888-888-8-66-666-666-666-6-22-222-2-44-444-4-|
-99-999-999-999-9-66-666-666-666-6-66-666-666-666-6-22-222-2-44-444-4-|
-77-777-777-777-7------------------44-444-444-444-4-00-000-0-22-222-2-|

----------------------------------------------------------------------|
----------------------------------------------------------------------|
------------------88-888-888-888-8------------------------------------|
-99-999-999-999-9-88-888-888-888-8-66-666-666-666-6-22-222-2-44-444-4-|
-99-999-999-999-9-66-666-666-666-6-66-666-666-666-6-22-222-2-44-444-4-|
-77-777-777-777-7------------------44-444-444-444-4-00-000-0-22-222-2-|


Termina en:

---
---
---
-9-
-9-
-7-

dudas, comentarios, mentadas de madre etc. a panda_gr9@hotmail.com
Добавлено: 30.05.2012
Другие материалы по этой песне:

Страница создана 11.03.2012
http://primanota.ru/panda/la-estrategia-perdida-chords.htm
Привет, Гость.
Предлагаем пройти революционный курс по гитаре.
Подарок от PrimaNota.Ru, забирай!